To celebrate the anniversary, I am giving you (finally...) : iPhone LickByNeck !!!!!!

Django (BASIC)

John Lewis' tune fingerstyle chord melody guitar BASIC arrangement played in the key of Fm.
Django - John Lewis - BASIC Arrangement played in the key of Fm.
http://classicalguitartablature.blogspot.com/
E|--------------------------------|-------- 3----------------------|
B|--------11-------------- 9------|---- 4---- 4------------ 6------|
G|---- 8---- 8-------- 6---- 6----|---- 5------ 5------ 5---- 5----|
D|----10------10------ 8------ 8--|-------------------- 6------ 6--|
A| 8-------------- 7--------------| 6-------------- 5--------------|
E|--------------------------------|--------------------------------|
http://classicalguitartablature.blogspot.com/
E|--------------------------------|--------------------------------|
B|------ 4-------------- 2--------|--------------------------------|
G|---- 3---- 3-------- 0---- 0----|-------- 5-------------- 3------|
D|---- 5------ 5------ 3------ 3--|---- 3-------- 3---- 2------ 2--|
A| 4-------------- 1--------------|--------------------------------|
E|--------------------------------| 4-------------- 3------ 2------|
http://classicalguitartablature.blogspot.com/
http://classicalguitartablature.blogspot.com/
E|-------------- 4------ 3--------|--------------------------------|
B|------ 1------ 1------ 1------ 6|------------ 5 6----------------|
G|-------- 1-------------------- 6|------ 6---------------- 6------|
D|---- 1------ 1------ 1------ 1--|---- 5-------------- 5------ 5--|
A|-------------- 3----------------|--------------------------------|
E| 1---------------------------- 6|---------------- 6--------------|
http://classicalguitartablature.blogspot.com/
E|---------------------- 9--------|--------------------------------|
B|------11-------------- 9------ 9|------------ 8 9------ 6--------|
G|---- 9-------------- 9 9---- 9 8|------ 8------ 8----------------|
D|---- 8------ 8------ 8----------|---- 6-------------- 6------ 6--|
A|---------------- 9--------------| 8------------------------------|
E| 8------------------------------|---------------- 8--------------|
http://classicalguitartablature.blogspot.com/
E|------ 8--------------11------ 9|------------ 8 9------ 6--------|
B|------ 9------------ 9-------- 6|-------------- 7------ 7--------|
G|------------ 8------ 8------ 8 6|------ 6------ 7----------------|
D|----10-------------- 7----------|---- 6-------------- 6------ 6--|
A| 8------------------------------|--------------------------------|
E|-------------- 7-------------- 6|-------------- 0----------------|
http://classicalguitartablature.blogspot.com/
E|------ 6-------------- 9--------| 8---------- 7 8----------------|
B|-------- 6---------- 7------ 7--| 8------------ 9------ 9--------|
G|-------------------- 6----------| 8---- 8------11------------11--|
D|---- 6------ 6------ 5----------|----10--------------10----------|
A| 6-------------- 0--------------|11------------------------------|
E|--------------------------------|--------------10----------------|
http://classicalguitartablature.blogspot.com/
E|------ 4-------------- 8--------|--------------------------------|
B|------------ 6------ 6------ 611|------------1011------ 8--------|
G|---- 5-------------- 5-------- 9|------ 9------ 9--------------10|
D|---- 6--------------------------|---- 8-------------- 8------ 8--|
A| 4------------------------------|--------------10----------------|
E|-------------- 4-------------- 8|--------------------------------|
http://classicalguitartablature.blogspot.com/
E|------------------------------ 8|----------------------15--------|
B|12----------11--12--------------|------------1213----------------|
G|--------10------12------12------|-------- 9----12----------------|
D|----12--------------12------12--|---- 8--------------10------10--|
A|10------------------------------|----------------10--------------|
E|----------------10--------------| 8------------------------------|
http://classicalguitartablature.blogspot.com/
E|--------15--------------13------|------11-------------- 9--------|
B|----13--------------13----------|----11--------------11----------|
G|----13--------------------------|----12--------------10----------|
D|------------13------13------13--|----11------11------ 9------ 9--|
A|----------------15--------------|13------------------------------|
E|13------------------------------|-------------- 9----------------|
http://classicalguitartablature.blogspot.com/
E|-------- 8----------------------|--------------------------------|
B|---- 8------------------11------|--------11-------------- 9------|
G|---- 9-------------------- 9----|---- 8---- 8-------- 6---- 6----|
D|---- 8------ 8------11------11--|----10------10------ 8------ 8--|
A|---------------- 9--------------| 8-------------- 7--------------|
E| 8------------------------------|--------------------------------|
http://classicalguitartablature.blogspot.com/
E|-------- 3----------------------|--------------------------------|
B|---- 4---- 4------------ 6------|------ 4-------------- 2--------|
G|---- 5------ 5------ 5---- 5----|---- 3---- 3-------- 0---- 0----|
D|-------------------- 6------ 6--|---- 5------ 5------ 3------ 3--|
A| 6-------------- 5--------------| 4-------------- 1--------------|
E|--------------------------------|--------------------------------|
http://classicalguitartablature.blogspot.com/
E|--------------------------------|--------------------------------|
B|--------------------------------|--------------------------------|
G|-------- 5-------------- 3------| 3-------------- 1--------------|
D|---- 3-------- 3---- 2------ 2--| 1-------------- 3--------------|
A|--------------------------------|--------------------------------|
E| 4-------------- 3------ 2---- 1|-------------- 1----------------|
http://classicalguitartablature.blogspot.com/
E|--------------------------------|--------------------------------|
B|--------------------------------|--------------------------------|
G|--------------------------------|--------------------------------|
D|--------------------------------|--------------------------------|
A|--------------------------------|--------------------------------|
E|--------------------------------|--------------------------------|
http://classicalguitartablature.blogspot.com/

0 ความคิดเห็น:

แสดงความคิดเห็น