To celebrate the anniversary, I am giving you (finally...) : iPhone LickByNeck !!!!!!

Good Bait (BASIC)

Jazz standards fingerstyle chord melody guitar BASIC arrangement played in the key of C.
Good Bait - BASIC ARRANGEMENT played in the key of C
http://classicalguitartablature.blogspot.com/
E|--------------------------------|--------------------------------|
B|------------ 1---------- 1------| 1------ 1-- 0-- 1--------------|
G|-------- 2------------------ 0--| 0---------------------- 0------|
D|---- 3-------------- 3----------|---- 2-------------- 2------ 2--|
A|--------------------------------| 3-------------- 0--------------|
E| 3-------------- 3--------------|--------------------------------|
http://classicalguitartablature.blogspot.com/
E|---------------------- 4---- 6--| 3------ 3-- 2-- 3--------------|
B|------------ 3-- 4-- 6 4--------| 3-------------- 1--------------|
G|---- 4-- 5 4---- 4--------------| 2-- 2---------- 0------ 0------|
D|---- 3--------------------------|-------------------- 2------ 2--|
A| 5-------------- 4--------------| 3-------------- 0--------------|
E|--------------------------------|--------------------------------|
http://classicalguitartablature.blogspot.com/
http://classicalguitartablature.blogspot.com/
E|---------------------- 3--------|-------------------- 5-- 3------|
B|---- 5-- 3---------- 3------ 6--| 5------ 5-- 4-- 5---------- 5--|
G|---- 5------ 5-- 4--------------| 4-------------- 3--------------|
D|---- 3---------- 3--------------|---- 5---------- 5--------------|
A| 5------------------------------| 3-------------- 3--------------|
E|---------------- 3--------------|--------------------------------|
http://classicalguitartablature.blogspot.com/
E|-------------------- 0-- 3-- 1--|--------------------------------|
B| 1------ 1-- 0-- 1--------------|------------------------------ 1|
G| 2-------------- 1--------------| 9---------- 8-- 7---------- 6--|
D|---- 3---------- 0--------------|---- 9-- 8---------- 7-- 6------|
A|---------------- 1--------------| 7------ 6------ 5------ 4------|
E| 1------------------------------|--------------------------------|
http://classicalguitartablature.blogspot.com/
E|--------------------------------|--------------------------------|
B|---------------------- 1--------| 1------ 1-- 0-- 1--------------|
G| 0------ 0------------------ 0--| 0---------------------- 0------|
D|---- 2------ 2------ 3----------|---- 2-------------- 2------ 2--|
A| 3------------------------------| 3-------------- 0--------------|
E|-------------- 3----------------|--------------------------------|
http://classicalguitartablature.blogspot.com/
E|---------------------- 4---- 6--| 3------ 3-- 2-- 3--------------|
B|------------ 3-- 4-- 6 4--------| 3-------------- 1--------------|
G|---- 4-- 5 4---- 4--------------| 2-- 2---------- 0------ 0------|
D|---- 3--------------------------|-------------------- 2------ 2--|
A| 5-------------- 4--------------| 3-------------- 0--------------|
E|--------------------------------|--------------------------------|
http://classicalguitartablature.blogspot.com/
E|---------------------- 3--------|-------------------- 5-- 3------|
B|---- 5-- 3---------- 3------ 6--| 5------ 5-- 4-- 5---------- 5--|
G|---- 5------ 5-- 4--------------| 4-------------- 3--------------|
D|---- 3---------- 3--------------|---- 5---------- 5--------------|
A| 5------------------------------| 3-------------- 3--------------|
E|---------------- 3--------------|--------------------------------|
http://classicalguitartablature.blogspot.com/
E|-------------------- 0-- 3-- 1--|--------------------------------|
B| 1------ 1-- 0-- 1--------------|------------------------------ 1|
G| 2-------------- 1--------------| 9---------- 8-- 7---------- 6--|
D|---- 3---------- 0--------------|---- 9-- 8---------- 7-- 6------|
A|---------------- 1--------------| 7------ 6------ 5------ 4------|
E| 1------------------------------|--------------------------------|
http://classicalguitartablature.blogspot.com/
E|--------------------------------| 1------ 1-- 0------------------|
B|---------------------------- 1--| 1------ 1---- 6----------------|
G| 0------ 0-------------- 3------| 2-- 2---------- 5------ 5------|
D|---- 2------ 2------ 2----------|-------------------- 3------ 3--|
A| 3-------------- 3--------------|---------------- 5--------------|
E|--------------------------------| 1------------------------------|
http://classicalguitartablature.blogspot.com/
E|------------ 3-------- 9----11--| 8------ 8-- 7-- 8--------------|
B|---- 5 6-- 5---- 9--11----------| 8-------------- 6--------------|
G|---- 3-------- 9----------------| 7-------------- 5------ 5------|
D|--------------11----------------|---- 7-------------- 7------ 7--|
A|---------------- 9--------------| 8-------------- 5--------------|
E| 3------------------------------|------------------------------ 3|
http://classicalguitartablature.blogspot.com/
E|------ 3-------------- 8--------|--------------------10-- 8------|
B|-- 3-------- 6------ 8------11--|10------10-- 9--10----------10--|
G|---- 3-------- 9----------------| 9-------------- 8--------------|
D|-------------- 8----------------|----10----------10--------------|
A|--------------------------------| 8-------------- 8--------------|
E|-------------- 8----------------|--------------------------------|
http://classicalguitartablature.blogspot.com/
E|--------------------------------| 5---------- 4-- 3---------- 2--|
B| 6------ 6-- 5------10--13--11--| 5-- 5-- 4-- 4-- 3-- 3-- 2-- 2--|
G| 5------------10----------------| 5-- 5-- 4-- 4-- 3-- 3-- 3-- 3--|
D|---- 5--------11----------------|---- 5-- 4---------- 3-- 2------|
A|--------------------------------|--------------------------------|
E| 6--------------11--------------| 5------ 4------ 3------ 2------|
http://classicalguitartablature.blogspot.com/
E| 1------------------------------|--------------------------------|
B| 1---------------------- 1------| 1------ 1-- 0-- 1--------------|
G| 0------ 0------------------ 0--| 0---------------------- 0------|
D|---- 0------ 0------ 3----------|---- 2-------------- 2------ 2--|
A|--------------------------------| 3-------------- 0--------------|
E| 1------------ 3----------------|--------------------------------|
http://classicalguitartablature.blogspot.com/
E|---------------------- 4---- 6--| 3------ 3-- 2-- 3--------------|
B|------------ 3-- 4-- 6 4--------| 3-------------- 1--------------|
G|---- 4-- 5 4---- 4--------------| 2-- 2---------- 0------ 0------|
D|---- 3--------------------------|-------------------- 2------ 2--|
A| 5-------------- 4--------------| 3-------------- 0--------------|
E|--------------------------------|--------------------------------|
http://classicalguitartablature.blogspot.com/
E|---------------------- 3--------|-------------------- 5-- 3------|
B|---- 5-- 3---------- 3------ 6--| 5------ 5-- 4-- 5---------- 5--|
G|---- 5------ 5-- 4--------------| 4-------------- 3--------------|
D|---- 3---------- 3--------------|---- 5---------- 5--------------|
A| 5------------------------------| 3-------------- 3--------------|
E|---------------- 3--------------|--------------------------------|
http://classicalguitartablature.blogspot.com/
E|-------------------- 0-- 3-- 1--|--------------------------------|
B| 1------ 1-- 0-- 1--------------|------------------------------ 1|
G| 2-------------- 1--------------| 9---------- 8-- 7---------- 6--|
D|---- 3---------- 0--------------|---- 9-- 8---------- 7-- 6------|
A|---------------- 1--------------| 7------ 6------ 5------ 4------|
E| 1------------------------------|--------------------------------|
http://classicalguitartablature.blogspot.com/
E|--------------------------------|--------------------------------|
B|---------------------------- 3--|------------------------------ 1|
G| 0------ 0-------------- 2------| 9---------- 8-- 7---------- 6--|
D|---- 2------ 2------ 1----------|---- 9-- 8---------- 7-- 6------|
A| 3------------------------------| 7------ 6------ 5------ 4------|
E|---------------- 1--------------|--------------------------------|
http://classicalguitartablature.blogspot.com/
E|--------------------------------|--------------------------------|
B|---------------------------- 3--|--------------------------------|
G| 0------ 0-------------- 2------| 9---------- 8-- 7---------- 6--|
D|---- 2------ 2------ 1----------|---- 9-- 8---------- 7-- 6------|
A| 3------------------------------| 7------ 6------ 5------ 4------|
E|---------------- 1--------------|--------------------------------|
http://classicalguitartablature.blogspot.com/
E|--------------------------------|--------------------------------|
B| 1-------------- 1--------------|--------------------------------|
G| 0-------------- 0--------------|--------------------------------|
D| 2------------------------------|--------------------------------|
A| 3-------------- 3--------------|--------------------------------|
E|--------------------------------|--------------------------------|
http://classicalguitartablature.blogspot.com/

0 ความคิดเห็น:

แสดงความคิดเห็น