To celebrate the anniversary, I am giving you (finally...) : iPhone LickByNeck !!!!!!

Shiny Stockings (BASIC)

Ella Fitzgerald's tune fingerstyle chord melody guitar BASIC arrangement played in the key of F.
Shiny Stockings - BASIC ARRANGEMENT played in the key of F
http://classicalguitartablature.blogspot.com/
E|13------10----------------------|---------------- 5-- 5------ 1--|
B|11------11------13--11------10 6|---------------- 3-- 3------ 1--|
G|10--10----------10--10----------|-------- 3------ 3---------- 0--|
D|------------12--12--12--12------|---- 3------ 3-------- 3--------|
A|10------------------------------|---------------- 3--------------|
E|----------------10--------------| 3------------------------------|
http://classicalguitartablature.blogspot.com/
E|--------------------------------|-------------------- 4-------- 5|
B|------------ 1-------------- 8--|---- 4-- 6-- 4------ 5----------|
G|-------- 0-------------- 7------|---- 5-- 5-- 5------ 5------ 5--|
D|---- 0-------------- 6----------|---- 5-- 5-- 5-------- 4--------|
A|--------------------------------|--------------------------------|
E| 1-------------- 6--------------| 5-------------- 4--------------|
http://classicalguitartablature.blogspot.com/
http://classicalguitartablature.blogspot.com/
E|---------------- 3-- 5------ 8--|--------------------------------|
B| 3---------- 3-- 3-- 3------ 8--|----10-------- 8------10--------|
G| 3------ 3------ 3---------- 9--|------------ 9 9------ 9--------|
D|---- 3------------------ 3------|------ 8------------ 8------ 8--|
A|---------------- 5--------------|--------------10----------------|
E| 3------------------------------| 8------------------------------|
http://classicalguitartablature.blogspot.com/
E|-------- 3---- 5---- 3---- 5----|-------------------- 2-------- 3|
B| 3------ 3---- 3---- 3---- 3----|------------ 3------ 3-------- 1|
G| 3-------------- 3-------- 3----|------ 3-------------------- 3 2|
D|---- 3---------------- 3--------|---- 3---------------- 2--------|
A|---------------- 5------------ 3|--------------------------------|
E| 3------------------------------|-------------- 2----------------|
http://classicalguitartablature.blogspot.com/
E|-------------------- 3------ 8--|--------------------------------|
B|---------------- 6---------- 8--|---- 8-------- 6---- 8----------|
G|-------- 2------ 5---------- 7--|---- 7------ 7 7---- 7------ 7--|
D|---- 2------ 2-- 3------ 3------|-------- 6---- 6-------- 6------|
A|--------------------------------|-------------- 8----------------|
E| 1-------------- 5--------------| 6------------------------------|
http://classicalguitartablature.blogspot.com/
E|-------- 1---- 3---- 1------ 3--|-------------------- 2----------|
B| 1------ 1------ 1-- 1------ 3--|-------------------- 3-------- 6|
G| 0-------------- 0-- 0------ 4--|------ 4------------ 1---- 1-- 3|
D|---- 2------ 2-------- 2--------|---- 3------ 3-------- 3--------|
A| 0------------------------------|--------------------------------|
E|---------------- 0------------ 4|-------------- 1-------------- 3|
http://classicalguitartablature.blogspot.com/
E|------------------------ 5-- 8--|--------------------------------|
B|---------------- 3-- 6------10--|-------------------- 9----------|
G|------ 3-------- 3---------- 9--|------ 9-------------------- 7--|
D|---- 3------ 3------------------|---- 8------ 8---------- 6------|
A|---------------- 5--------------|--------------------------------|
E|--------------------------------| 8-------------- 6--------------|
http://classicalguitartablature.blogspot.com/
E|---------------------- 7----10--|--------------------------------|
B| 8------------ 5---- 8------12--|-------------------- 711----10--|
G| 5---- 5------ 5------------11--|------11------------ 7----------|
D|---- 5------ 5------------------|----10------10------ 7----------|
A|-------------- 7----------------|--------------------------------|
E| 5------------------------------|10-------------- 8------------ 7|
http://classicalguitartablature.blogspot.com/
E|---------------------- 9----12--|-------------------- 9-------- 5|
B|-------------- 7----10------ 9--|------------ 9------ 9-------- 5|
G|------ 7------ 7------------11--|------11------------ 7------ 7 4|
D|---- 7------ 7 7----------------|----12---------------- 6--------|
A|-------------- 9----------------|--------------------------------|
E|------------------------------ 0|-------------- 6----------------|
http://classicalguitartablature.blogspot.com/
E|----------------------------11--|----1110---------------------- 5|
B|----------------------------10--|----1010------13----11----------|
G|-------- 4------------ 6---- 8--|---- 8 8---- 811------------11--|
D|---- 4------ 4------ 6----------|--------------10--------10------|
A|--------------------------------|--------------------------------|
E| 5-------------- 0--------------| 8------------10----------------|
http://classicalguitartablature.blogspot.com/
E|---------------- 3-- 5------ 8--|--------------------------------|
B| 3---------- 3-- 3-- 3------ 8--|----10-------- 8------10--------|
G| 3------ 3------ 3---------- 9--|------------ 9 9------ 9--------|
D|---- 3------------------ 3------|------ 8------------ 8------ 8--|
A|---------------- 5--------------|--------------10----------------|
E| 3------------------------------| 8------------------------------|
http://classicalguitartablature.blogspot.com/
E|-------- 3---- 5---- 3---- 5----|-------------------- 2-------- 3|
B| 3------ 3---- 3---- 3---- 3----|------------ 3------ 3-------- 1|
G| 3-------------- 3-------- 3----|------ 3-------------------- 3 2|
D|---- 3---------------- 3--------|---- 3---------------- 2--------|
A|---------------- 5------------ 3|--------------------------------|
E| 3------------------------------|-------------- 2----------------|
http://classicalguitartablature.blogspot.com/
E|-------------------- 3------ 8--|--------------------------------|
B|---------------- 6---------- 8--|---- 8-------- 6---- 8----------|
G|-------- 2------ 5---------- 7--|---- 7------ 7 7---- 7------ 7--|
D|---- 2------ 2-- 3------ 3------|-------- 6---- 6-------- 6------|
A|--------------------------------|-------------- 8----------------|
E| 1-------------- 5--------------| 6------------------------------|
http://classicalguitartablature.blogspot.com/
E|-------- 1---- 3---- 1------ 3--|-------------------- 2----------|
B| 1------ 1------ 1-- 1------ 3--|-------------------- 3-------- 6|
G| 0-------------- 0-- 0------ 4--|------ 4------------ 1---- 1-- 3|
D|---- 2------ 2-------- 2--------|---- 3------ 3-------- 3--------|
A| 0------------------------------|--------------------------------|
E|---------------- 0------------ 4|-------------- 1-------------- 3|
http://classicalguitartablature.blogspot.com/
E|------------------------ 5-- 8--|--------------------------------|
B|---------------- 3-- 6------10--|-------------------- 9----------|
G|------ 3-------- 3---------- 9--|------ 9-------------------- 7--|
D|---- 3------ 3------------------|---- 8------ 8---------- 6------|
A|---------------- 5--------------|--------------------------------|
E|--------------------------------| 8-------------- 6--------------|
http://classicalguitartablature.blogspot.com/
E|---------------------- 7----10--|--------------------12--------13|
B| 8------------ 5---- 8------12--|------------12------12----------|
G| 5---- 5------ 5------------11--|------11------------11------11--|
D|---- 5------ 5------------------|----10------------------10------|
A|-------------- 7----------------|----------------11--------------|
E| 5------------------------------|10------------------------------|
http://classicalguitartablature.blogspot.com/
E|--------10----------------------|---------------- 5-- 5----------|
B|11------11------13--11------10 6|---------------- 3-- 3------ 6--|
G|10--10----------10--10----------|-------- 3------ 3---------- 5--|
D|------------12--12--12--12------|---- 3------ 3-------- 3---- 5--|
A|10------------------------------|---------------- 3--------------|
E|----------------10--------------| 3------------------------------|
http://classicalguitartablature.blogspot.com/
E|--------------------------------|------------------------------13|
B|--------------------------------|---------------------------- 6--|
G|------ 5-------------- 6------ 5|------ 5---- 5-------- 5--------|
D|---- 5------ 5------ 5------ 5--|---- 4---- 4-------- 4----------|
A|-------------- 6-------------- 5|--------------------------------|
E| 5------------------------------|---------------- 4--------------|
http://classicalguitartablature.blogspot.com/
E|--------10----------------------|---------------- 5-- 5------ 1--|
B|11------11------13--11------10 6|---------------- 3-- 3------ 1--|
G|10--10----------10--10----------|-------- 3------ 3---------- 0--|
D|------------12--12--12--12------|---- 3------ 3-------- 3--------|
A|10------------------------------|---------------- 3--------------|
E|----------------10--------------| 3------------------------------|
http://classicalguitartablature.blogspot.com/
E|--------------------------------|------------------------------13|
B|------------ 1-------------- 8--| 4-- 6------ 4-- 6-- 4------ 6--|
G|-------- 0-------------- 7------| 5-- 5------ 5-- 5-- 5------ 5--|
D|---- 0-------------- 6----------| 5-- 5------ 5-- 4---- 4---- 4--|
A|--------------------------------|--------------------------------|
E| 1-------------- 6--------------| 5-------------- 4--------------|
http://classicalguitartablature.blogspot.com/
E|--------10----------------------|---------------- 5-- 5------ 1--|
B|11------11------13--11------10 6|---------------- 3-- 3------ 1--|
G|10--10----------10--10----------|-------- 3------ 3---------- 0--|
D|------------12--12--12--12------|---- 3------ 3-------- 3--------|
A|10------------------------------|---------------- 3--------------|
E|----------------10--------------| 3------------------------------|
http://classicalguitartablature.blogspot.com/
E|--------------------------------|--------------------------------|
B|--------------------------------|--------------------------------|
G|------------------------------ 3|------------ 2------------------|
D|------------------------------ 2|------------ 1------------------|
A|---- 0-------- 1------ 2------ 3|--------------------------------|
E| 1------------------------------|---- 3 2---- 1------------------|
http://classicalguitartablature.blogspot.com/

0 ความคิดเห็น:

แสดงความคิดเห็น