To celebrate the anniversary, I am giving you (finally...) : iPhone LickByNeck !!!!!!

The End Of A Love Affair (Intermediate)

Jazz standard fingerstyle chord melody guitar intermediate arrangement played in the key of G.
The End Of A Love Affair - Intermediate ARRANGEMENT played in the key of G
http://classicalguitartablature.blogspot.com/
E|--------------------------------|---------------------------- 5--|
B| 3---- 3-------- 3---------- 3--| 3---------------------- 8------|
G| 3-- 3 3---- 5-- 5-- 5------ 5--| 4-- 4------ 4------ 7-- 7------|
D|-- 1-- 3-- 3------ 5------ 4----|-- 4------ 4------ 5------ 5----|
A|--------------------------------|--------------------------------|
E| 3------ 4------ 5------ 4---- 3|-------- 5------ 7------ 6------|
http://classicalguitartablature.blogspot.com/
E| 7---------- 7-- 7---- 5--------|--------------------------------|
B| 5---------- 5-- 7---- 5---- 8--| 7---------------------- 5-- 3--|
G| 5---------- 5-- 5---- 5---- 7--| 7-- 7------ 7------ 5-- 5------|
D|---- 5---------------------- 6--|-- 5------ 5------ 5------ 4----|
A|--------------------------------|--------------------------------|
E| 5------ 3------ 4---- 5---- 6--| 7------ 6------ 5---- 4--------|
http://classicalguitartablature.blogspot.com/
http://classicalguitartablature.blogspot.com/
E| 5---------- 5-- 5-- 3---- 1-- 0|--------------------------------|
B| 3---- 4-- 4---- 3-- 2---- 4-- 1|------------------------ 3-- 1--|
G| 3-- 3---- 2---- 3-- 0---- 3-- 2|------------ 2------ 5-- 0------|
D|-- 3----------------------------|---- 2---- 2------ 3------ 2----|
A|--------------------------------|------------------------ 1------|
E| 3------ 2------ 1---- 0-- 2-- 1|------ 3-------- 5--------------|
http://classicalguitartablature.blogspot.com/
E|------------------------ 6-- 8--| 3------ 3-- 3 3------ 1--------|
B| 8------ 8-- 8-- 8------ 6------| 5------ 5-- 5-- 3---- 4---- 4 3|
G| 8-- 8-- 8------ 7-- 7-- 5------| 5-- 5-- 3------ 1-- 1 3------ 3|
D|-- 6---- 6-- 6-- 6 6------ 5----|-- 3------ 5------ 3------ 1----|
A|--------------------------------|--------------------------------|
E| 8------ 7------ 6------ 5------| 4------ 3------ 1------ 2------|
http://classicalguitartablature.blogspot.com/
E|--------------------------------|---------------------------- 5--|
B|------ 3------ 3------------ 3--| 3---------------------- 8------|
G|---- 3 3---- 5 5---- 5------ 5--| 4-- 4------ 4------ 7-- 7------|
D|-- 1-- 3-- 3------ 5------ 4----|-- 4------ 4------ 5------ 5----|
A|--------------------------------|--------------------------------|
E| 3---- 4------ 5-------- 4---- 3|-------- 5------ 7------ 6------|
http://classicalguitartablature.blogspot.com/
E| 7---------- 7-- 7---- 5--------|--------------------------------|
B| 5---------- 5-- 7---- 5---- 8--| 7---------------------- 5-- 3--|
G| 5---------- 5-- 5---- 5---- 7--| 7-- 7------ 7------ 5-- 5------|
D|---- 5---------------------- 6--|-- 5------ 5------ 5------ 4----|
A|--------------------------------|--------------------------------|
E| 5------ 3------ 4---- 5---- 6--| 7------ 6------ 5---- 4--------|
http://classicalguitartablature.blogspot.com/
E| 5---------- 5-- 5-- 3---- 1-- 0|--------------------------------|
B| 3---- 4-- 4---- 3-- 2---- 4-- 1|------------------------ 3-- 1--|
G| 3-- 3---- 2---- 3-- 0---- 3-- 2|------------ 2------ 5-- 0------|
D|-- 3----------------------------|---- 2---- 2------ 3------ 2----|
A|--------------------------------|------------------------ 1------|
E| 3------ 2------ 1---- 0-- 2-- 1|------ 3-------- 5--------------|
http://classicalguitartablature.blogspot.com/
E|------------------------ 6-- 8--| 3------ 3-- 3 3------ 1--------|
B| 8------ 8-- 8-- 8------ 6------| 5------ 5-- 5-- 3---- 4---- 4 3|
G| 8-- 8-- 8------ 7-- 7-- 5------| 5-- 5-- 3------ 1-- 1 3--------|
D|-- 6---- 6-- 6-- 6 6------ 5----|-- 3------ 5------ 3------ 1----|
A|--------------------------------|--------------------------------|
E| 8------ 7------ 6------ 5------| 4------ 3------ 1------ 2------|
http://classicalguitartablature.blogspot.com/
E|--------------------------------|---------------------- 0--------|
B|------ 3------ 3------------ 3 3|---------------------- 7---- 7 8|
G| 3-- 3 3---- 5 5---- 5------ 5--| 2-- 2------ 2------ 2 4---- 4 7|
D|-- 1-- 3-- 3------ 5------ 4----|-- 2------ 2------ 2------ 7----|
A|--------------------------------|---------------------- 6------ 7|
E| 3---- 4------ 5-------- 4------| 3------ 2---- 0----------------|
http://classicalguitartablature.blogspot.com/
E|-------------- 7----------------|-------- 3-------------- 0-- 2--|
B|------ 5---- 8 8-------- 8------| 8------ 2-------------- 1-- 1--|
G|---- 7 5---- 5-- 9-- 9-- 9-- 9--| 7-- 7-- 2-- 2------ 2---- 2----|
D|-- 5------ 7------ 9------ 9----|-- 5------ 2------ 2------------|
A|------ 6------------------------|--------------------------------|
E|----------------10------ 9------| 7------ 5------ 3------ 2------|
http://classicalguitartablature.blogspot.com/
E|---------------- 7--------------|---------------------- 2---- 3--|
B| 8------ 5-- 8-- 8------ 8------| 8-------------------- 2--------|
G| 7-- 7-- 5-- 5-- 9-- 9-- 9-- 9--| 7-- 7------ 7------ 6-- 2------|
D|-- 5------ 7------ 9------ 9----|-- 5------ 5------ 5------ 2----|
A| 7------ 6----------------------|--------------------------------|
E|----------------10------ 9------| 7------ 6------ 5------ 3------|
http://classicalguitartablature.blogspot.com/
E| 5---------- 5-- 9------ 7------| 7------ 9--10--12----------12--|
B| 3------ 7------10------10--10--| 7------ 7------12----------12--|
G| 2-- 2-- 6------11--11-- 9-- 9--| 7-- 7---- 7----11--11------11--|
D|-- 4------ 7------11------ 7 8--|-- 7--------------12------12----|
A|--------------------------------|---------------- 0------11------|
E| 2------ 0------10------ 9-- 8--| 7------ 6----------------------|
http://classicalguitartablature.blogspot.com/
E|12------------------------------|---------------------------- 5--|
B|12--12------12------------------|------------------------ 8------|
G|--12------12-------- 6------ 6--|---- 5------ 2------ 2-- 7------|
D|------------------ 5------ 5----|-- 5------ 2------ 3------ 5----|
A|10------ 9---- 7------ 6------ 5|-------- 3---- 2----------------|
E|--------------------------------|------------------------ 6------|
http://classicalguitartablature.blogspot.com/
E| 7---------- 7-- 7---- 5--------|--------------------------------|
B| 5---------- 5-- 7---- 5---- 8--| 7---------------------- 5-- 3--|
G| 5---------- 5-- 5---- 5---- 7--| 7-- 7------ 7------ 5-- 5------|
D|---- 5---------------------- 6--|-- 5------ 5------ 5------ 4----|
A|--------------------------------|--------------------------------|
E| 5------ 3------ 4---- 5---- 6--| 7------ 6------ 5---- 4--------|
http://classicalguitartablature.blogspot.com/
E| 5---------- 5-- 5-- 3---- 1-- 0|--------------------------------|
B| 3---- 4-- 4---- 3-- 2---- 4-- 1|------------------------ 3-- 1--|
G| 3-- 3---- 2---- 3-- 0---- 3-- 2|------------ 2------ 5-- 0------|
D|-- 3----------------------------|---- 2---- 2------ 3------ 2----|
A|--------------------------------|------------------------ 1------|
E| 3------ 2------ 1---- 0-- 2-- 1|------ 3-------- 5--------------|
http://classicalguitartablature.blogspot.com/
E|------------------------ 6-- 8--| 3------ 3-- 3 3------ 1--------|
B| 8------ 8-- 8-- 8------ 6------| 5------ 5-- 5-- 3---- 4---- 4 3|
G| 8-- 8-- 8------ 7-- 7-- 5------| 5-- 5-- 3------ 1-- 1 3--------|
D|-- 6---- 6-- 6-- 6 6------ 5----|-- 3------ 5------ 3------ 1----|
A|--------------------------------|--------------------------------|
E| 8------ 7------ 6------ 5------| 4------ 3------ 1------ 2------|
http://classicalguitartablature.blogspot.com/
E|--------------------------------|10---------------------------- 7|
B|------ 3------ 3------------ 3--|10--------------------13----12 8|
G| 3-- 3 3---- 5 5---- 5------ 5--|10--10------10------1210----10 9|
D|-- 1-- 3-- 3------ 5------ 4----|--10------10------12------12 9--|
A|--------------------------------|10------------------------------|
E| 3---- 4------ 5-------- 4------|--------13------12------10-- 9--|
http://classicalguitartablature.blogspot.com/
E|-------- 7------ 7-- 7------ 5--| 8------------------ 7-- 5-- 3--|
B|-------- 8--10-- 5-- 7------ 5--| 8---------------- 6---- 4------|
G|---- 9-- 7------ 5-- 5------ 3--| 8-- 8------ 8---- 4------ 5----|
D|-- 9------ 7--------------------|-- 7------ 7--------------------|
A|--------------------------------| 8------ 6------ 5------ 3------|
E| 8------ 7------ 5-- 4-- 2------|--------------------------------|
http://classicalguitartablature.blogspot.com/
E|---------------- 2------ 2------| 5-------------------- 3--------|
B| 7------ 7-- 5-- 3------ 3-- 5--| 2-- 2---------------- 3---- 7--|
G| 7-- 7-- 7------ 4-- 4-- 2------|-- 3-------- 3------ 3-- 4-- 7--|
D|-- 5------ 5------ 4------ 2----|---------- 2------ 2------ 3 6--|
A|--------------------------------|--------------------------------|
E| 7------ 5------ 3------ 2------| 0------ 2------ 3------ 4-- 6--|
http://classicalguitartablature.blogspot.com/
E|--------------------------------| 0---------- 812----------------|
B| 5------ 5-- 3-- 5---- 5---- 3--| 1---- 8------12------------ 7--|
G| 5-- 5-- 4-- 4-- 5-- 5-- 2-- 2--| 2-- 2 6------11----11---- 4----|
D|-- 5------ 3------ 5-- 4-- 4----|-- 2------ 6------10------ 5----|
A|--------------------------------|------ 6-------------- 4--------|
E| 5------ 4------ 3------ 2------| 0--------------10--------------|
http://classicalguitartablature.blogspot.com/
E|--------------------------------|--------------------------------|
B| 8------------------------------|--------------------------------|
G| 8-- 8 7---- 7------ 7-- 5------| 2------------------------------|
D|-- 7------ 7------ 6---- 5-- 4--| 2------------------------------|
A|--------------------------------|--------------------------------|
E| 8------ 7------ 6------ 5-- 4--| 3------------------------------|
http://classicalguitartablature.blogspot.com/

0 ความคิดเห็น:

แสดงความคิดเห็น