To celebrate the anniversary, I am giving you (finally...) : iPhone LickByNeck !!!!!!
0 com

More (EASY)

Jazz tune fingerstyle solo guitar easy arrangement played in the key of G.
MORE played in the key of G.
http://classicalguitartablature.blogspot.com/
E|------------------------------ 5|--------------------------------|
B| 8---------------------- 7-- 8 5|-------- 8------ 8------ 7------|
G| 9------ 9-------------- 7-- 7 5|---------------- 5------ 5------|
D|---- 7------ 7------ 7----------|---- 5------ 5------ 5------ 5--|
A|--------------------------------|---------------- 7--------------|
E| 8-------------- 7--------------| 5------------------------------|
http://classicalguitartablature.blogspot.com/
E|---------------------------- 2--|------------------------ 7------|
B| 3---------------------- 5------| 8------ 7------ 8--------------|
G| 4------ 4---------- 4----------| 7------ 7------ 7--------------|
D|---- 4------ 4------------------|---- 9------ 9------ 9------ 9--|
A|---------------- 5--------------|--------------------------------|
E| 3------------------------------| 0-------------- 7--------------|
http://classicalguitartablature.blogspot.com/
http://classicalguitartablature.blogspot.com/
E|------------------------ 7---- 5|--------------------------------|
B| 1------------------ 5-------- 5|------------------------------ 0|
G| 0------ 0---------- 5------ 5 5|-------- 5-------------- 5---- 2|
D|---- 2------ 2------ 5----------|---- 5------ 5------ 5------ 5--|
A| 0------------------------------| 5------------------------------|
E|---------------- 0--------------|---------------- 5--------------|
http://classicalguitartablature.blogspot.com/
E|--------------------------------|--------------------------------|
B|---------------------------- 3 5|---------------- 5------ 8------|
G|------ 2-------------- 5------ 7|-------- 8------ 7--------------|
D|---- 0------ 0------ 5----------|---- 5-------------- 5------ 5--|
A|---------------- 5------------ 7|--------------------------------|
E| 3------------------------------|---------------- 7--------------|
http://classicalguitartablature.blogspot.com/
E|---------------------- 3--------|--------------------------------|
B|---------------------- 1---- 1 7|--------------------------------|
G| 2---------------------------- 5|-------- 5------------------ 5--|
D|---- 2------ 2------ 2----------|---- 7------ 7------ 7------ 4--|
A| 0---------------------------- 5|--------------------------------|
E|---------------- 0--------------|---------------- 5------ 4------|
http://classicalguitartablature.blogspot.com/
E|---------------------------- 2--|------------------------ 7------|
B| 3---------------------- 5------| 8------ 7------ 8--------------|
G| 4------ 4---------- 4----------| 7------ 7------ 7--------------|
D|---- 4------ 4------------------|---- 9------ 9------ 9------ 9--|
A|---------------- 5--------------|--------------------------------|
E| 3------------------------------| 0-------------- 7--------------|
http://classicalguitartablature.blogspot.com/
E|------------------------ 7---- 5|--------------------------------|
B| 1------------------ 5-------- 5|------------------------------ 0|
G| 0------ 0---------- 5------ 5 5|-------- 5-------------- 5---- 2|
D|---- 2------ 2------ 5----------|---- 5------ 5------ 5------ 5--|
A| 0------------------------------| 5------------------------------|
E|---------------- 0--------------|---------------- 5--------------|
http://classicalguitartablature.blogspot.com/
E|--------------------------------|--------------------------------|
B|---------------------------- 3 5|---------------- 5------ 8------|
G|------ 2-------------- 5------ 7|-------- 8------ 7--------------|
D|---- 0------ 0------ 5----------|---- 5-------------- 5------ 5--|
A|---------------- 5------------ 7|--------------------------------|
E| 3------------------------------|---------------- 7--------------|
http://classicalguitartablature.blogspot.com/
E|---------------------- 3--------| 2------------------------------|
B|---------------------- 1---- 1--| 1-------------------------- 4--|
G| 2------------------------------| 2------ 2-------------- 2------|
D|---- 2------ 2------ 2----------|---- 2------ 2------ 4----------|
A| 0------------------------------|---------------- 2--------------|
E|---------------- 0--------------| 2------------------------------|
http://classicalguitartablature.blogspot.com/
E| 3---------------------- 2-- 3--| 5------------------------------|
B| 0---------- 0------------------| 8------ 8------ 8------ 7------|
G| 0------ 0----------------------| 5------ 5------ 5------ 5------|
D|---- 0-------------- 0----------|---- 7------ 7------ 7------ 7--|
A|---------------- 2--------------| 6------------------------------|
E| 0------------------------------|---------------- 5--------------|
http://classicalguitartablature.blogspot.com/
E| 3---------------------- 2-- 3 5|------ 3------ 3------ 2--------|
B| 5---- 5-------------- 5---- 5 5|-------------- 5----------------|
G|---- 4------ 4------ 4----------|---- 4------ 4------ 4------ 4--|
D|--------------------------------|--------------------------------|
A| 5---------------------------- 4|--------------------------------|
E|---------------- 3--------------|-------------- 3----------------|
http://classicalguitartablature.blogspot.com/
E|------------------------------12|-------------- 5-------------- 5|
B| 8---------------------- 7-- 8--|12----12------ 5------ 8------ 5|
G| 9------ 9-------------- 7-- 7--|----12------12 6------ 6------ 5|
D|---- 7------ 7------ 7----------|-------------------- 5------ 5--|
A|--------------------------------| 0------------------------------|
E| 8-------------- 7--------------|-------------- 0----------------|
http://classicalguitartablature.blogspot.com/
E|--------------------------------|--------------------------------|
B|-------- 8------ 8------ 7------| 7------ 5------ 5---- 4--------|
G|---------------- 5------ 5------| 5------ 5------ 5------ 5------|
D|---- 5------ 5------ 5------ 5--|---- 7------ 7------ 5------ 4--|
A|---------------- 7--------------| 5------------------------------|
E| 5------------------------------|---------------- 5------ 4------|
http://classicalguitartablature.blogspot.com/
E|---------------------------- 2--|------------------------ 7------|
B| 3---------------------- 5------| 8------ 7------ 8--------------|
G| 4------ 4---------- 4----------| 7------ 7------ 7--------------|
D|---- 4------ 4------------------|---- 9------ 9------ 9------ 9--|
A|---------------- 5--------------|--------------------------------|
E| 3------------------------------| 0-------------- 7--------------|
http://classicalguitartablature.blogspot.com/
E|------------------------ 7---- 5|--------------------------------|
B| 1------------------ 5-------- 5|------------------------------ 0|
G| 0------ 0---------- 5------ 5 5|-------- 5-------------- 5---- 2|
D|---- 2------ 2------ 5----------|---- 5------ 5------ 5------ 5--|
A| 0------------------------------| 5------------------------------|
E|---------------- 0--------------|---------------- 5--------------|
http://classicalguitartablature.blogspot.com/
E|--------------------------------|--------------------------------|
B|---------------------------- 3 5|---------------- 5------ 8------|
G|------ 2-------------- 5------ 7|-------- 8------ 7--------------|
D|---- 0------ 0------ 5----------|---- 5-------------- 5------ 5--|
A|---------------- 5------------ 7|--------------------------------|
E| 3------------------------------|---------------- 7--------------|
http://classicalguitartablature.blogspot.com/
E|---------------------- 3--------| 2------------------------------|
B|---------------------- 1---- 1--| 1-------------------------- 4--|
G| 2------------------------------| 2------ 2-------------- 2------|
D|---- 2------ 2------ 2----------|---- 2------ 2------ 4----------|
A| 0------------------------------|---------------- 2--------------|
E|---------------- 0--------------| 2------------------------------|
http://classicalguitartablature.blogspot.com/
E| 3---------------------- 2-- 3--| 5------------------------------|
B| 0---------- 0------------------| 8------ 8------ 8------ 7------|
G| 0------ 0----------------------| 5------ 5------ 5------ 5------|
D|---- 0-------------- 0----------|---- 7------ 7------ 7------ 7--|
A|---------------- 2--------------| 6------------------------------|
E| 0------------------------------|---------------- 5--------------|
http://classicalguitartablature.blogspot.com/
E| 3---------------------- 2-- 3 5|------ 3------ 3------ 2--------|
B| 5---- 5-------------- 5---- 5 5|-------------- 5----------------|
G|---- 4------ 4------ 4----------|---- 4------ 4------ 4------ 4--|
D|--------------------------------|--------------------------------|
A| 5---------------------------- 4|--------------------------------|
E|---------------- 3--------------|-------------- 3----------------|
http://classicalguitartablature.blogspot.com/
E|------------------------------ 5|--------------------------------|
B| 8---------------------- 7-- 8 5|-------- 8------ 8------ 7------|
G| 9------ 9-------------- 7-- 7 5|---------------- 5------ 5------|
D|---- 7------ 7------ 7----------|---- 5------ 5------ 5------ 5--|
A|--------------------------------|---------------- 7--------------|
E| 8-------------- 7--------------| 5---------------------------- 3|
http://classicalguitartablature.blogspot.com/
E| 3------------------------------|--------------------------------|
B| 3------------------------------|--------------------------------|
G| 2------------------------------|--------------------------------|
D|--------------------------------|--------------------------------|
A|--------------------------------|--------------------------------|
E|--------------------------------|--------------------------------|
http://classicalguitartablature.blogspot.com/
0 com

The Best Is Yet To Come (Part 2)

Jazz tune fingerstyle solo guitar arrangement played in the key of Ab.
The Best Is Yet To Come played in the key of Ab.
http://classicalguitartablature.blogspot.com/
E|--------------------------------|---- 4 3------ 4-- 3-- 1------ 1|
B| 9------------------------------|---- 4 6-- 6-- 2---- 2 2------ 1|
G| 8------------ 6------------ 5--|---- 3 3-- 3-- 3---- 3 0------ 1|
D| 6-- 6------ 6------ 4------ 4--|------------ 5------------ 2----|
A|--------------------------------|--------------------------------|
E| 8------ 7---- 6-------- 5---- 4|------ 3------ 2------ 0------ 1|
http://classicalguitartablature.blogspot.com/
E|--------------------------------|---- 4 3-------- 4-- 3-- 1---- 1|
B|--------------------------------|---- 3 6---- 6-- 2-- 2-- 4---- 1|
G|------------ 3 4------------ 0--| 1-- 1 3---- 3-- 4-- 4-- 3---- 1|
D|---- 1------ 2------ 3------ 2--| 3---------- 5-------------- 1--|
A|--------------------------------|--------------------------------|
E|-------- 3---- 1------ 0--------| 1------ 3------ 4------ 2---- 1|
http://classicalguitartablature.blogspot.com/
http://classicalguitartablature.blogspot.com/
E|--------------------------------|-- 7-- 6------ 7---- 6-------- 4|
B|-------------- 2----------------|---- 9 9---- 9 7---- 4 9------ 4|
G|------------ 3 1------------ 0--|---- 7 7------ 6---- 3 8------ 3|
D|---- 1------ 2---- 3-------- 2--|---------------------- 6--------|
A|------------------------------ 8|------ 7------ 6---- 4----------|
E|------ 3------ 1------ 0--------|---------------------- 8---- 6 4|
http://classicalguitartablature.blogspot.com/
E|--------------------------------|---- 7 6------ 7---- 6 4------ 4|
B|-------------- 5-------------- 6|------ 9---- 9 5---- 5 4------ 4|
G|-------------- 4------------ 6 4|------ 6---- 6 4---- 4 4------ 3|
D|---- 3------ 3------ 2------ 4 6|------------ 8-------------- 3--|
A|--------------------------------|--------------------------------|
E|-------- 3------ 4---- 6--------| 4---- 6------ 4------ 3------ 4|
http://classicalguitartablature.blogspot.com/
E|--------------------------------|--------------------------------|
B|------------------------------ 2|--------------------------------|
G|------ 7------ 6-------------- 3|-------------- 3----------------|
D|---- 3 6---- 6------ 6---- 6----|---- 3------ 3------ 2------ 2--|
A|--------------------------------|--------------------------------|
E|------ 7------ 6------ 4------ 3|-------- 1---- 2-------- 0------|
http://classicalguitartablature.blogspot.com/
E|---- 8---------------------- 6--|------ 5---------------------- 4|
B| 6-- 9----------12---- 6---- 6--|---- 6 7-------- 6-- 9------ 6--|
G| 8--10------10--10---- 5---- 6--|---- 6 5-------- 4-- 6------ 6--|
D| 6----------10-- 9-- 9-- 6------|---- 6------ 7-- 6-- 6------ 6--|
A| 8---------------------- 6------| 8---- 6-------- 4--------------|
E|-------- 8------ 9--------------|------------------------ 7------|
http://classicalguitartablature.blogspot.com/
E|--------------------------------|--------------------------------|
B| 6-- 6--------------------------|--------------------------------|
G| 5-- 4------ 4------ 1------ 5 5|------------ 5------ 5------ 9--|
D|---- 3------ 3------ 0------ 5--|---- 6------ 5------ 5-------- 8|
A|---------------------- 6------ 5|-------- 6------ 7------ 9------|
E| 4------ 3------ 1--------------|--------------------------------|
http://classicalguitartablature.blogspot.com/
E|---- 8---------------------- 6--|------ 5------------------------|
B| 6-- 9----------12---- 6---- 6--|---- 6 7-------- 6-- 9------ 6--|
G| 8--10------10--10---- 5---- 6--|---- 6 5-------- 4-- 6------ 6--|
D| 6----------10-- 9-- 9-- 6------|---- 6------ 7-- 6-- 6------ 6--|
A| 8---------------------- 6------| 8---- 6-------- 4--------------|
E|-------- 8------ 9--------------|------------------------ 7------|
http://classicalguitartablature.blogspot.com/
E|--------------------------------|--------------------------------|
B| 9-- 6--------------------------|--------------------------------|
G| 7-- 5-------------- 5------ 5--| 3------ 1-- 1------ 0------ 4--|
D| 6-- 5------ 5------ 6-------- 6|---- 3------ 1------ 2------ 6--|
A|--------------------------------|------------------------ 5------|
E| 6------ 5------ 4------ 3------| 2------ 1------ 0--------------|
http://classicalguitartablature.blogspot.com/
E|--------------------------------| 4------ 4-------------------- 6|
B| 4-- 9---------- 9--------------| 6------ 4-- 4---------------- 6|
G| 6-- 8------ 8-- 8---- 8--------| 6------ 6-- 5---------------- 6|
D| 4-- 8------ 8------ 6------ 6--|---- 4------ 4------ 4------ 4--|
A| 6------------------------------|--------------------------------|
E|-------- 9------ 8------ 7------| 6------ 5------ 4------ 2------|
http://classicalguitartablature.blogspot.com/
E|---- 9---- 6-- 9------ 6---- 9--|------ 8------------------------|
B|---- 8------ 8 7------ 6----11--|--------------------------------|
G|---- 6------ 6 8---- 8-- 4-- 9--|---- 9------ 9------ 8------10--|
D|--------------------------------|----11------ 8------ 8------ 9--|
A| 8------ 7---- 6-------- 5------|--------------------------------|
E|--------------------------------| 9------ 8---- 9--------10------|
http://classicalguitartablature.blogspot.com/
E|--------------------------------| 4------ 4-------------------- 6|
B| 4-- 9---------- 9--------------| 6------ 4-- 4---------------- 6|
G| 6-- 8------ 8-- 8---- 8--------| 6------ 6-- 5---------------- 6|
D| 4-- 8------ 8------ 6------ 6--|---- 4------ 4------ 4------ 4--|
A| 6------------------------------|--------------------------------|
E|-------- 9------ 8------ 7------| 6------ 5------ 4------ 2------|
http://classicalguitartablature.blogspot.com/
E|---- 9---- 6-- 9------ 6---- 9--|--------------------------------|
B|---- 8------ 8 7------ 6---- 8--|---- 8--------------------------|
G|---- 6------ 6 8---- 8-- 4-- 9--|---- 9------ 9-- 7---------- 7 6|
D|--------------------------------|-------------------- 7------ 6 6|
A| 8------ 7---- 6-------- 5------|--------------------------------|
E|--------------------------------| 9------ 8------ 7------ 6------|
http://classicalguitartablature.blogspot.com/
E|---- 4-------- 3------------ 2--|--------------------------------|
B|---- 2------ 2 5------ 2---- 2--|---- 2 6------ 2---- 5-------- 5|
G|---- 4------ 4 4------ 2---- 2--|---- 2 4------ 2---- 6------ 6 6|
D|------------ 2------ 3 2--------|---- 2------ 6 2---- 6------ 6 4|
A|--------------------------------|------ 5------ 4----------------|
E| 5------ 4---- 3-------- 2---- 0|---------------------- 7------ 6|
http://classicalguitartablature.blogspot.com/
E|--------------------------------|--------------------------------|
B|---- 2--------------------------|------------------------------ 7|
G|---- 3------ 3-------------- 3 6|-------------------- 2------ 3--|
D|---- 2------ 2------ 2------ 2--|---- 7------ 7-------- 2---- 2--|
A|------------------------------ 6|------ 5------ 4------ 3--------|
E|-------- 4------ 2------ 0------|--------------------------------|
http://classicalguitartablature.blogspot.com/
E|---- 9-------- 8------------ 7--|---- 8 7-- 5-- 8-- 7-- 5---- 5--|
B|---- 7---- 7--11------ 7---- 7--|---- 7 7-- 5--10----10 8---- 5--|
G| 8-- 8------ 8 9---- 9 7---- 7--|---- 5 6---- 4 8---- 7 7---- 4--|
D| 7-------------------- 7--------|--------------------------------|
A|----------------10---- 9------ 7|---- 6 5---- 4------------------|
E| 7---- 5------------------------|-------------- 8---- 7 6---- 5--|
http://classicalguitartablature.blogspot.com/
E|--------------------------------|--------------------------------|
B|---------------- 4--------------|--------------------------------|
G|---------------- 6--------------|--------------------------------|
D|-------------- 4----------------|--------------------------------|
A|--------------------------------|--------------------------------|
E|-------------- 5----------------|--------------------------------|
http://classicalguitartablature.blogspot.com/
0 com

The Best Is Yet To Come (Part 1)

Jazz tune fingerstyle chord melody guitar arrangment played in the key of Ab.
The Best Is Yet To Come played in the key of Ab.
http://classicalguitartablature.blogspot.com/
E|--------------------------------|--------------------------------|
B|---- 6------ 6------ 7----------|---- 2------ 2------------------|
G|---- 6------ 6------ 7------ 7--|---- 1------ 1-- 3---------- 3 5|
D|---- 6-------------- 7------ 7--|---- 3------ 3------ 1------ 1 5|
A| 6------------------------------|--------------------------------|
E|---------------- 0--------------| 1-------------- 2------ 3---- 4|
http://classicalguitartablature.blogspot.com/
E|---- 3---------- 2--------------|--------------------------------|
B|---- 4---------- 4------ 1-- 6--|-------- 5------ 1-- 4----------|
G|---- 5------ 5-- 3------ 1-- 5--|---- 5-- 3------ 1-- 5------ 5--|
D|------------ 5------ 2-- 1-- 6--|---- 6------ 5-- 1-- 6------ 6--|
A|--------------------------------| 6------ 4------ 3--------------|
E|-------- 3------ 2------ 1------|------------------------ 6------|
http://classicalguitartablature.blogspot.com/
http://classicalguitartablature.blogspot.com/
E|--------------------------------|--------------------------------|
B| 4-- 1--------------------------|--------------------------------|
G| 3-- 3--------------------------|---------------- 8---------- 6 5|
D| 3---------- 1------ 1-- 1-- 1--|---- 6------ 6------ 6 5---- 5 5|
A|------------------------------ 6|-------- 4----------------------|
E| 4------ 3------ 2------ 1------|---------------- 8------ 6---- 4|
http://classicalguitartablature.blogspot.com/
E|---- 3---------- 2--------------|--------------------------------|
B|---- 4---------- 4------ 1-- 6--|-------- 5------ 1-- 4----------|
G|---- 5------ 5-- 3------ 1-- 5--|---- 5-- 3------ 1-- 5------ 5--|
D|------------ 5------ 2-- 1-- 6--|---- 6------ 5-- 1-- 6------ 6--|
A|--------------------------------| 6------ 4------ 3--------------|
E|-------- 3------ 2------ 1------|------------------------ 6------|
http://classicalguitartablature.blogspot.com/
E|--------------------------------|--------------------------------|
B| 4-- 1--------------------------|--------------------------------|
G| 5-- 2------------------ 5------|-------- 3------------------ 2--|
D| 3-- 1------ 1------ 1------ 7--| 6-- 6------ 5------ 5------ 1--|
A|------------------------ 6------| 5------ 4------ 3------ 2------|
E| 5------ 3------ 1--------------|--------------------------------|
http://classicalguitartablature.blogspot.com/
E|--------------------------------|--------------------------------|
B|---- 4---------- 4---------- 4--|-------- 4---------- 4------ 2 1|
G| 3-- 3------ 3-- 3------ 3-- 3--|---- 3-- 3------ 3-- 1------ 1 1|
D| 3-- 3------ 3------ 1-- 3-- 5--|---- 5------ 5-- 1---------- 3--|
A| 1------------------------------| 6------ 4------ 3------ 1------|
E|-------- 4------ 3------ 1------|--------------------------------|
http://classicalguitartablature.blogspot.com/
E|--------------------------------|--------------------------------|
B|--------------------------------|--------------------------------|
G|---- 1--------------------------|---- 5-------------- 4------ 0--|
D| 1-- 2------ 2-- 1-- 1------ 0--|---- 6------ 6------ 3------ 3--|
A|--------------------------------| 6------ 5------ 4------ 2------|
E| 4------ 2------ 1------ 0------|--------------------------------|
http://classicalguitartablature.blogspot.com/
E|---- 7-------- 6------------ 5--|------ 4-------- 0--------------|
B| 5-- 5------ 5 8-------- 5-- 5--|---- 5 3-------- 1-- 8------ 5--|
G| 4-- 7------ 7 7-------- 5-- 5--|---- 5-- 1------ 0-- 5------ 4--|
D| 5---------- 5------ 6-- 5------|---- 5------ 3------ 7------ 3--|
A| 3------------------------------|------------------------ 5-- 4--|
E|-------- 7------ 6------ 5------| 3------ 1------ 0--------------|
http://classicalguitartablature.blogspot.com/
E| 3------------------------------|--------------------------------|
B| 5-- 5--------------------------|--------------------------------|
G| 4-- 7---------------------- 5 0|------------ 0------ 0------ 5--|
D|---- 5------ 5------ 5------ 3--|---- 2------ 0------ 2------ 3--|
A| 3------------------------------|------------------------ 5------|
E|-------- 7------ 5------ 4---- 3|-------- 1------ 0--------------|
http://classicalguitartablature.blogspot.com/
E|---- 7-------- 6------------ 5--|------ 4-------- 0--------------|
B| 5-- 5------ 5 8-------- 5-- 5--|---- 5 3-------- 1-- 8------ 5--|
G| 4-- 7------ 7 7-------- 5-- 5--|---- 5-- 1------ 0-- 5------ 5--|
D| 5---------- 5------ 6-- 5------|---- 5------ 3------ 7------ 7--|
A| 3------------------------------|------------------------ 5------|
E|-------- 7------ 6------ 5------| 3------ 1------ 0--------------|
http://classicalguitartablature.blogspot.com/
E| 3------------------------------|--------------------------------|
B| 5-- 5--------------------------|--------------------------------|
G| 2-- 6-------------- 6-- 2------| 2---------- 2 5------------ 6--|
D|---- 5------ 5------ 5------ 2--|---- 2------ 0------ 5------ 5--|
A| 4------------------------------|-------------- 7------ 6--------|
E|-------- 7------ 5------ 3------| 2---- 1------------------------|
http://classicalguitartablature.blogspot.com/
E|--------------------------------| 3------ 3----------------------|
B| 3-- 8---------- 8------ 3------| 3------ 0-- 3------------------|
G| 5-- 7------ 7-- 7------ 5------| 5------ 0-- 0-------------- 5--|
D| 3-- 7------ 7------ 5------ 3--|---- 3------ 2------ 2------ 3--|
A| 5------------------------------|------------------------ 5------|
E|-------- 8------ 7------ 5------| 3------ 1------ 0--------------|
http://classicalguitartablature.blogspot.com/
E|---- 8---------- 8------ 5-- 8--|--------------------------------|
B|10--10------10-- 6------ 5--10--|--------------------------------|
G| 9-- 9------ 9-- 5------ 4-- 8--|---- 8------ 8------ 5------ 6--|
D|10------------------ 7----------|----10------10------ 5------ 5--|
A|--------------------------------| 9------ 8------ 7------ 6------|
E| 8------ 7------ 5------ 3------|--------------------------------|
http://classicalguitartablature.blogspot.com/
E|--------------------------------| 3------ 3----------------------|
B| 3-- 8---------- 8------ 3------| 3------ 0-- 3------------------|
G| 5-- 7------ 7-- 7------ 5------| 5------ 0-- 0-------------- 5--|
D| 3-- 7------ 7------ 5------ 3--|---- 3------ 2------ 2------ 3--|
A| 5------------------------------|------------------------ 5------|
E|-------- 8------ 7------ 5------| 3------ 1------ 0--------------|
http://classicalguitartablature.blogspot.com/
E|---- 8------ 5 8-------- 5-- 8--|--------------------------------|
B|10-- 6------ 6 7-------- 8-- 6--|--------------------------------|
G| 9-- 5------ 5 5---- 5-- 5-- 6--|---- 6------ 3------ 3------ 6 5|
D|10------------------------------|---- 6------ 1------ 1------ 5 5|
A|-------- 5------ 6------ 7------| 8------------------------------|
E| 8------------------------------|-------- 2------ 3---- 5------ 4|
http://classicalguitartablature.blogspot.com/
E|---- 3---------- 2--------------|--------------------------------|
B|---- 4---------- 4------ 1-- 6--|-------- 5------ 1-- 4----------|
G|---- 5------ 5-- 3------ 1-- 5--|---- 5-- 3------ 1-- 5------ 5--|
D|------------ 5------ 2-- 1-- 6--|---- 6------ 5-- 1-- 6------ 6--|
A|--------------------------------| 6------ 4------ 3--------------|
E|-------- 3------ 2------ 1------|------------------------ 6------|
http://classicalguitartablature.blogspot.com/
E|--------------------------------|--------------------------------|
B| 4-- 1--------------------------|--------------------------------|
G| 5-- 2------------------ 5------|-------- 3------------------ 3--|
D| 3-- 1------ 1------ 1------ 7--| 6-- 6------ 5------ 5------ 5--|
A|------------------------ 6------| 5------ 4------ 3------ 4------|
E| 5------ 3------ 1--------------|--------------------------------|
http://classicalguitartablature.blogspot.com/
E|---- 8---------- 7---------- 6--|---- 7-------- 7---- 6-- 4------|
B| 6-- 9------ 6-- 6------ 6-- 9--|---- 9------ 9 6---- 6-- 5------|
G| 3--10------ 7-- 4------ 4-- 7--|---- 7------ 7-- 4-- 4------ 3--|
D| 6---------- 6------ 6-- 3------|------------ 9------------------|
A| 5------------------------------| 8---- 7-------- 5------ 4------|
E|-------- 8-- 6-- 4------ 3------|--------------------------------|
http://classicalguitartablature.blogspot.com/
E|--------------------------------|-- 4----------------------------|
B| 9------------------------------|-- 4----------------------------|
G| 8---------- 7-- 6---------- 6--| 3------------------------------|
D|---- 6------ 9------ 6------ 5--|--------------------------------|
A|--------------------------------|--------------------------------|
E| 8------ 7------ 6------ 5------| 4------------------------------|
http://classicalguitartablature.blogspot.com/