To celebrate the anniversary, I am giving you (finally...) : iPhone LickByNeck !!!!!!
0 com

Comes Love

Jazz standards fingerstyle chord melody guitar arrangment played in the key of Gm.
Comes Love played in the key of Gm.
http://classicalguitartablature.blogspot.com/
E|---- 8------ 8 6----------------|--------------------------------|
B| 3-- 6-------- 6------10------ 8|-------------- 3----------------|
G| 3-- 6------ 6 5------ 7------ 7|------------ 5 3------------ 2--|
D| 5------------------ 4------ 7--|---- 5------ 7------ 2------ 1--|
A|------ 6-------- 5--------------|--------------------------------|
E| 0-------------------- 8------ 6|------ 5------ 3-------- 2------|
http://classicalguitartablature.blogspot.com/
E|--------------------------------| 3------ 6-------------------- 3|
B|------------------------ 3-- 3--| 3------ 4-------------- 3-- 3 3|
G| 3------ 2---------- 3-- 2-- 2--| 3------ 2---- 3-------- 3-- 3--|
D|---- 2------ 4------ 5-- 1-- 1--|---- 3------ 4------ 3-- 2-- 2--|
A|-------- 6------ 7--------------|--------------------------------|
E| 0---------------------- 2------| 3------ 2------ 1------ 0------|
http://classicalguitartablature.blogspot.com/
http://classicalguitartablature.blogspot.com/
E|---- 3 6---- 6 3----------------|-------- 5----------------------|
B|---- 3 5---- 5 3------ 3------ 7|-------- 4-------------- 3-- 3--|
G| 3-- 3 3---- 3 1-- 1-- 0-- 0-- 5|-------- 5---- 2-------- 3------|
D|---------------------- 3--------|---- 7------ 5------ 0-- 2------|
A| 5---- 4------ 2------ 1--------|--------------------------------|
E|------------------------------ 5|-------- 3---- 2-------- 0------|
http://classicalguitartablature.blogspot.com/
E|-------- 5-- 5-- 2------------10|--------------------------------|
B| 7-- 7-- 7-- 7-- 3---- 3------10|--------------------------------|
G| 5-- 5-- 5-- 5-- 2-- 2 0------11|------------11-- 8---------- 7 7|
D| 7-- 7---------------- 3---- 3--|----10------10------10------10 8|
A| 6------ 5------ 3------ 1------|12------11------10------ 9------|
E|--------------------------------|--------------------------------|
http://classicalguitartablature.blogspot.com/
E|---- 8------ 8 6----------------|--------------------------------|
B|---- 6-------- 6------10------ 8|-------------- 3----------------|
G|---- 6------ 6 5------ 7------ 7|------------ 5 3------------ 2--|
D|-------------------- 4------ 7--|---- 5------ 7------ 2------ 1--|
A| 7---- 6-------- 5--------------|--------------------------------|
E|---------------------- 8------ 6|------ 5------ 3-------- 2------|
http://classicalguitartablature.blogspot.com/
E|--------------------------------| 3------ 6-------------------- 3|
B|------------------------ 3-- 3--| 3------ 4-------------- 3-- 3 3|
G| 3------ 2---------- 3-- 2-- 2--| 3------ 2---- 3-------- 3-- 3--|
D|---- 2------ 4------ 5-- 1-- 1--|---- 3------ 4------ 3-- 2-- 2--|
A|-------- 6------ 7--------------|--------------------------------|
E| 0---------------------- 2------| 3------ 2------ 1------ 0------|
http://classicalguitartablature.blogspot.com/
E|---- 3 6---- 6 3----------------|-------- 5----------------------|
B|---- 3 5---- 5 3------ 3------ 7|-------- 4-------------- 3-- 3--|
G| 3-- 3 3---- 3 1-- 1-- 0-- 0-- 5|-------- 5---- 2-------- 3------|
D|---------------------- 3--------|---- 7------ 5------ 0-- 2------|
A| 5---- 4------ 2------ 1--------|--------------------------------|
E|------------------------------ 5|-------- 3---- 2-------- 0------|
http://classicalguitartablature.blogspot.com/
E|-------- 5-- 5-- 2------------10|--------------------------------|
B| 7-- 7-- 7-- 7-- 3---- 3------10|--------------------------------|
G| 5-- 5-- 5-- 5-- 2-- 2 0------11|------------11-- 8---------- 7 7|
D| 7-- 7---------------- 3---- 3--|----10------10------10------10 8|
A| 6------ 5------ 3------ 1------|12------11------10------ 9------|
E|--------------------------------|--------------------------------|
http://classicalguitartablature.blogspot.com/
E|---- 8------ 8 6----------------|--------------------------------|
B|---- 6-------- 6------10------ 8|-------------- 3----------------|
G|---- 6------ 6 5------ 7------ 7|------------ 5 3------------ 2--|
D|-------------------- 4------ 7--|---- 5------ 7------ 2------ 1--|
A| 7---- 6-------- 5--------------|--------------------------------|
E|---------------------- 8------ 6|------ 5------ 3-------- 2------|
http://classicalguitartablature.blogspot.com/
E|--------------------------------|10---------- 7----------------10|
B|--------------------------------|12---------- 6----------------12|
G| 3------ 2---------- 3-- 2------|10---------- 7------ 7 7--------|
D|---- 2------ 4------ 5------ 0--|----12---------------------- 7--|
A|-------- 6------ 7--------------|10------------------------------|
E| 0---------------------- 2------|-------- 5------ 7---- 8--------|
http://classicalguitartablature.blogspot.com/
E|------------ 7------11------1011|------10------ 8----------------|
B|------------ 8------11------13 8|------ 9-------- 8----12----13--|
G|10---------- 7------10------10--|---- 8 7-------- 8------10--12--|
D|----12--------------------------|------------ 9------ 8--12--10--|
A|------ 8------10------12--------|--------------------------------|
E|10------------------------------| 6------ 7------ 8------10------|
http://classicalguitartablature.blogspot.com/
E|------------------------------ 8|------------------------------ 8|
B|------------------------------ 6|------------10---------------- 8|
G|----12 0-------- 3-- 3------ 4 5|------------10--------10------ 5|
D|----10------ 0-- 1-- 1 3---- 3--|---- 7------10------10------ 9--|
A|--------------------------------|--------------------------------|
E|11---- 1-------- 3------ 4---- 5|-------- 6------ 8----10--------|
http://classicalguitartablature.blogspot.com/
E|--------------------------------|10--10------10------10------10--|
B|------------10------------------|10-- 8------ 9------ 9------10--|
G|------------ 7------ 7 8--------|11-- 7------ 7------10------11--|
D|---- 7------ 8------ 7------10--|10------------------ 9------10--|
A| 6---- 7------ 9--------10------| 0------------------------------|
E|--------------------------------|-------- 6---- 7------ 9------10|
http://classicalguitartablature.blogspot.com/
E|--------------------------------| 3------ 6-------------------- 3|
B|---- 3---- 3---------- 3---- 3--| 3------ 4-------------- 3-- 3 3|
G|---- 5---- 3------ 3-- 2---- 2--| 3------ 2---- 3-------- 3-- 3--|
D|---- 7------ 5---- 5---- 1-- 1--|---- 3------ 4------ 3-- 2-- 2--|
A|------ 6------------------------|--------------------------------|
E|-------------- 0-------- 2------| 3------ 2------ 1------ 0------|
http://classicalguitartablature.blogspot.com/
E|---- 3 6---- 6 3----------------|-------- 5----------------------|
B|---- 3 5---- 5 3------ 3------ 7|-------- 4-------------- 3-- 3--|
G| 3-- 3 3---- 3 1-- 1-- 0-- 0-- 5|-------- 5---- 2-------- 3------|
D|---------------------- 3--------|---- 7------ 5------ 0-- 2------|
A| 5---- 4------ 2------ 1--------|--------------------------------|
E|------------------------------ 5|-------- 3---- 2-------- 0------|
http://classicalguitartablature.blogspot.com/
E|-------- 5-- 5-- 2------------10|--------------------------------|
B| 7-- 7-- 7-- 7-- 3---- 3------10|--------------------------------|
G| 5-- 5-- 5-- 5-- 2-- 2 0------11|------------11-- 8---------- 7 7|
D| 7-- 7---------------- 3---- 3--|----10------10------10------10 8|
A| 6------ 5------ 3------ 1------|12------11------10------ 9------|
E|--------------------------------|--------------------------------|
http://classicalguitartablature.blogspot.com/
E|---- 8------ 8 6----------------|--------------------------------|
B|---- 6-------- 6------10------ 8|-------------- 3----------------|
G|---- 6------ 6 5------ 7------ 7|------------ 5 3------------ 2 7|
D|-------------------- 4------ 7--|---- 5------ 7------ 2------ 1 8|
A| 7---- 6-------- 5--------------|--------------------------------|
E|---------------------- 8------ 6|------ 5------ 3-------- 2------|
http://classicalguitartablature.blogspot.com/
E|---- 8------ 8 6----------------|--------------------------------|
B|---- 6-------- 6------10------ 8|-------------- 3----------------|
G|---- 6------ 6 5------ 7------ 7|------------ 5 3------------ 2 7|
D|-------------------- 4------ 7--|---- 5------ 7------ 2------ 1 8|
A| 7---- 6-------- 5--------------|--------------------------------|
E|---------------------- 8------ 6|------ 5------ 3-------- 2------|
http://classicalguitartablature.blogspot.com/
E|---- 8------ 8 6----------------|--------------------------------|
B|---- 6-------- 6------10------ 8|-------------- 3----------------|
G|---- 6------ 6 5------ 7------ 7|------------ 5 3------------ 2--|
D|-------------------- 4------ 7--|---- 5------ 7------ 2------ 1--|
A| 7---- 6-------- 5--------------|--------------------------------|
E|---------------------- 8------ 6|------ 5------ 3-------- 2------|
http://classicalguitartablature.blogspot.com/
E|------------------------------ 3|---- 6--------------------------|
B|------------------------ 3-- 3--| 6-- 5--------------------------|
G| 3------ 2---------- 3-- 2-- 2--| 5-- 3--------------------------|
D|---- 2------ 4------ 5-- 1-- 1--| 3------------------------------|
A|-------- 6------ 7--------------|--------------------------------|
E| 0---------------------- 2------| 4-- 3--------------------------|
http://classicalguitartablature.blogspot.com/
0 com

Lady Bird

Jazz standards fingerstyle solo guitar arrangement played in the key of C.
Lady Bird played in the key of C.
http://classicalguitartablature.blogspot.com/
E|--------------------------------|--------------------------------|
B|---- 3------ 3------ 3------ 3--|-- 1-------- 1---- 1------ 1----|
G|---- 2-------------- 3------ 3--|-- 1-------- 1---- 1-------- 1--|
D|---- 2-------------- 1------ 1--|-- 1---------------- 3----------|
A|--------------------------------|------------------------------ 7|
E| 3-------------- 3------------ 3|-------------- 3----------------|
http://classicalguitartablature.blogspot.com/
E|--------------------------------|---- 3------ 3------ 3------ 3--|
B|---- 8------ 8------ 8------ 8--|---- 4-------------- 6------ 6--|
G|---- 5------ 5------ 7---- 7----|---- 5------ 5------ 5------ 5--|
D|---- 9------ 9------ 8------ 8--|--------------------------------|
A|-------------- 6-------------- 5|-------------- 4----------------|
E|--------------------------------|--------------------------------|
http://classicalguitartablature.blogspot.com/
http://classicalguitartablature.blogspot.com/
E|--------------------------------| 3---------- 3---------- 3------|
B|---- 8-------- 8-------- 8------| 6---------------------- 2----11|
G|---- 7-------- 7-------- 6------| 5---------- 5 2-------- 0---- 8|
D|---- 7------ 7------ 6------ 5--|---- 3-------------- 2------ 210|
A|--------------------------------|--------------------------------|
E| 8---- 7-------- 6------ 5------| 4------ 3------ 2------ 0------|
http://classicalguitartablature.blogspot.com/
E|---------------- 4--------------|--------------------------------|
B|---------------- 6-- 1---- 4----| 8---------- 5------------------|
G|------ 5-------- 5-- 1---- 2----| 7---------- 3------ 3 1--------|
D|----10------ 6------ 1---- 4----|---- 6------ 3------ 3------ 0--|
A| 8------ 6------ 5---- 3---- 2--|--------------------------------|
E|--------------------------------| 6------ 4------ 3------ 1------|
http://classicalguitartablature.blogspot.com/
E|--------------------------------|--------------------------------|
B|---- 8-------- 8------ 8------ 8|------------ 8---------- 8------|
G|---- 5------ 610------10------ 7|------------ 7------ 7-- 7------|
D|---- 5------ 6------10 9---- 9--|---- 7------ 7------ 6------ 5--|
A| 7------ 6----------------------|--------------------------------|
E|----------------10------ 9---- 8|------ 7-------- 6------ 5------|
http://classicalguitartablature.blogspot.com/
E| 8------------ 6---------- 1-- 8|--------------------------------|
B| 6-------------- 6-- 2---- 0----| 6----------10------------------|
G| 6------ 3------ 6-- 3---- 1----| 6---------- 8------ 8 6---- 6 5|
D|---- 6------ 1------ 3----------|---- 6------ 8------ 7 6---- 5 5|
A|--------------------------------| 6------------------------------|
E| 4------ 3------ 2-- 1---- 0----|-------- 9------ 8-- 7 6---- 5 4|
http://classicalguitartablature.blogspot.com/
E|---- 6--------------------------| 6------ 5-- 4------------------|
B|---- 6--------10------ 9--------| 6------ 8-- 1------ 1----------|
G|---- 6------ 6 8------ 9--------| 5------ 5-- 1------ 1-- 2------|
D|------------ 6------10------ 8--|---- 6-------------- 1------ 1--|
A|--------------------------------| 5------ 7----------------------|
E|-------- 6---- 8------ 9--------|---------------- 1------ 2------|
http://classicalguitartablature.blogspot.com/
E|---- 7---------- 6------ 5------| 7---------------------------- 8|
B|---- 6---------- 5------ 8------| 7------11--10------------------|
G| 2-- 4------ 4-- 6------ 7------| 7------11--12------12------12--|
D| 2---------- 6------ 5------ 5--|---- 7--10--10------10------10--|
A|--------------------------------|--------------------------------|
E| 3------ 4------ 5------ 7------| 8------10------11------12------|
http://classicalguitartablature.blogspot.com/
E|-------------------- 5----------|---------------------------- 3--|
B|10------------------ 6 6---- 5--|-------------- 2-------- 3-- 3--|
G| 7------ 3---------- 7-- 5-- 7--|---- 7-------- 4-------- 5-- 2--|
D|---- 7------ 2---------- 6-- 5--|---- 5------ 5------ 5-- 4------|
A| 8------------------------------|--------------------------------|
E|------ 3------ 5-------- 6---- 7|------ 6------ 5-------- 4------|
http://classicalguitartablature.blogspot.com/
E|--------------------------------|--------------------------------|
B|-------------------- 3------ 3--|-- 1-------- 1---- 1------ 1----|
G|---- 2------ 2------ 3------ 3--|-- 1-------- 1---- 1-------- 1--|
D|---- 2-------------- 1------ 1--|-- 1---------------- 3----------|
A|--------------------------------|--------------------------------|
E| 3-------------- 3------------ 3|-------------- 3----------------|
http://classicalguitartablature.blogspot.com/
E|--------------------------------| 3---------- 3---------- 3------|
B|---- 8-------- 8-------- 8------| 6---------------------- 2----11|
G|---- 7-------- 7-------- 6------| 5---------- 5 2-------- 0---- 8|
D|---- 7------ 7------ 6------ 5--|---- 3-------------- 2------ 210|
A|--------------------------------|--------------------------------|
E| 8---- 7-------- 6------ 5------| 4------ 3------ 2------ 0------|
http://classicalguitartablature.blogspot.com/
E|---------------- 4--------------|--------------------------------|
B|---------------- 6-- 1---- 4----| 8---------- 5------------------|
G|------ 5-------- 5-- 1---- 2----| 7---------- 3------ 3 1--------|
D|----10------ 6------ 1---- 4----|---- 6------ 3------ 3------ 0--|
A| 8------ 6------ 5---- 3---- 2--|--------------------------------|
E|--------------------------------| 6------ 4------ 3------ 1------|
http://classicalguitartablature.blogspot.com/
E|--------------------------------|--------------------------------|
B|---- 8-------- 8------ 8------ 8|------------ 8---------- 8------|
G|---- 5------ 610------10------ 7|------------ 7------ 7-- 7------|
D|---- 5------ 6------10 9---- 9--|---- 7------ 7------ 6------ 5--|
A| 7------ 6----------------------|--------------------------------|
E|----------------10------ 9---- 8|------ 7-------- 6------ 5------|
http://classicalguitartablature.blogspot.com/
E| 8------------ 6---------- 1-- 8|--------------------------------|
B| 6-------------- 6-- 2---- 0----| 6----------10------------------|
G| 6------ 3------ 6-- 3---- 1----| 6---------- 8------ 8 6---- 6 5|
D|---- 6------ 1------ 3----------|---- 6------ 8------ 7 6---- 5 5|
A|--------------------------------| 6------------------------------|
E| 4------ 3------ 2-- 1---- 0----|-------- 9------ 8-- 7 6---- 5 4|
http://classicalguitartablature.blogspot.com/
E|---- 6--------------------------| 6------ 5-- 4------------------|
B|---- 6--------10------ 9--------| 6------ 8-- 1------ 1----------|
G|---- 6------ 6 8------ 9--------| 5------ 5-- 1------ 1-- 2------|
D|------------ 6------10------ 8--|---- 6-------------- 1------ 1--|
A|--------------------------------| 5------ 7----------------------|
E|-------- 6---- 8------ 9--------|---------------- 1------ 2------|
http://classicalguitartablature.blogspot.com/
E|---- 7---------- 6------ 5------| 7---------------------------- 8|
B|---- 6---------- 5------ 8------| 7------11--10------------------|
G| 2-- 4------ 4-- 6------ 7------| 7------11--12------12------12--|
D| 2---------- 6------ 5------ 5--|---- 7--10--10------10------10--|
A|--------------------------------|--------------------------------|
E| 3------ 4------ 5------ 7------| 8------10------11------12------|
http://classicalguitartablature.blogspot.com/
E|-------------------- 5----------|---------------------------- 3--|
B|10------------------ 6 6---- 5--|-------------- 2-------- 3-- 3--|
G| 7------ 3---------- 7-- 5-- 7--|---- 7-------- 4-------- 5-- 2--|
D|---- 7------ 2---------- 6-- 5--|---- 5------ 5------ 5-- 4------|
A| 8------------------------------|--------------------------------|
E|------ 3------ 5-------- 6---- 7|------ 6------ 5-------- 4------|
http://classicalguitartablature.blogspot.com/
E|--------------------------------|--------------------------------|
B|-------------------- 3------ 3--|-- 1-------- 1---- 1------ 1----|
G|---- 2------ 2------ 3------ 3--|-- 1-------- 1---- 1-------- 1--|
D|---- 2-------------- 1------ 1--|-- 1---------------- 3----------|
A|--------------------------------|------------------------------ 7|
E| 3-------------- 3------------ 3|-------------- 3----------------|
http://classicalguitartablature.blogspot.com/
E|--------------------------------|---- 3------ 3------ 3------ 3--|
B|---- 8------ 8------ 8------ 8--|---- 4-------------- 6------ 6--|
G|---- 5------ 5------ 7---- 7----|---- 5------ 5------ 5------ 5--|
D|---- 9------ 9------ 8------ 8--|--------------------------------|
A|-------------- 6-------------- 5|-------------- 4----------------|
E|--------------------------------|--------------------------------|
http://classicalguitartablature.blogspot.com/
E|-- 3----------------------------|--------------------------------|
B|-- 3----------------------------|--------------------------------|
G| 4------------------------------|--------------------------------|
D|--------------------------------|--------------------------------|
A| 3------------------------------|--------------------------------|
E|--------------------------------|--------------------------------|
http://classicalguitartablature.blogspot.com/
0 com

Secret Love

Jazz standards fingerstyle chord melody guitar arrangment played in the key of Eb.
Secret Love played in the key of Eb.
http://classicalguitartablature.blogspot.com/
E|-------------- 4------ 8--------| 6------------ 1----------------|
B| 1------ 6-- 8 6------ 8--------| 5------------ 2------ 8--------|
G| 1------ 7-- 7------ 5 7--------| 3-- 3 3------------ 2 7--------|
D|---- 1-- 6-- 6-------------- 6--|------------ 2-------- 6--------|
A|-------------- 6------ 5--------| 4---- 3------ 2----------------|
E| 1------ 0----------------------|---------------------- 6---- 4--|
http://classicalguitartablature.blogspot.com/
E|--------------------------------|--------------------------------|
B| 4-- 4---------- 4-- 4------ 4--| 4-- 4------ 4-- 4-- 4------ 4--|
G| 3-- 3------ 3-- 5-- 5------ 5--| 1-- 1------ 1-- 4-- 4------ 5--|
D| 3---- 3------ 3 5---- 5---- 6--| 3-- 3------ 1-- 3-- 3------ 4--|
A|--------------------------------| 2------ 3------ 4------ 5------|
E| 3------ 4------ 5------ 6------|--------------------------------|
http://classicalguitartablature.blogspot.com/
http://classicalguitartablature.blogspot.com/
E| 6------------------------------| 3-------------------------- 3--|
B| 6---------------------- 9------| 4---- 4-------- 6---- 3--------|
G| 5------------------ 3-- 8------| 5------ 4------ 3---- 1---- 1--|
D|---- 5------ 5------ 5------ 6--|---- 5------ 3-- 5-- 5 3--------|
A| 6------ 5------ 3--------------|--------------------------------|
E|------------------------ 7------| 5------ 4------ 3------ 1------|
http://classicalguitartablature.blogspot.com/
E|--------------------------------|--------------------------------|
B|--------------------------------|--------------------------------|
G| 3-- 3------------------ 5------| 5------------------ 1 3--------|
D| 5-- 5------ 3------ 5-- 5------|---- 3-------------- 1------ 6--|
A| 6------ 5------ 3--------------|--------------------------------|
E|------------------------ 6-- 5--| 4------ 3-- 2 1------ 0--------|
http://classicalguitartablature.blogspot.com/
E|--------------------------------|---- 4---------- 6-- 8----------|
B| 4---------------------- 6------| 8-- 7---------- 5-- 9-------- 6|
G| 3---------- 3---------- 7------| 6---- 6---- 6-- 3-- 9------ 9 8|
D| 5-- 5------ 3------ 3------ 6--| 5---------- 4-- 5---------- 8 6|
A| 6------ 5------ 3--------------|------------------------ 9------|
E|------------------------ 7------| 6------ 5------ 3--------------|
http://classicalguitartablature.blogspot.com/
E|--------------------------------|--------------------------------|
B|---- 6--------------------------|--------------------------------|
G|---- 8------ 7-- 5---------- 3--| 1---------- 1-- 3---------- 3--|
D|---- 6------ 6------ 6------ 6--|---- 1------ 3------ 3------ 2--|
A| 8------ 7------ 6------ 5------| 3------ 1----------------------|
E|--------------------------------|---------------- 4------ 3------|
http://classicalguitartablature.blogspot.com/
E| 4------------------------------|---------------------- 1--------|
B| 4------------------------------| 6------ 3------ 4---- 2--------|
G| 3---------- 1-- 6---------- 5--| 3------ 4------ 3---------- 2--|
D|---- 2------ 1------ 8------ 6--|---- 6------ 3------ 2----------|
A|---------------- 7------ 6------| 5------ 4------ 3------ 2------|
E| 2------ 1----------------------|--------------------------------|
http://classicalguitartablature.blogspot.com/
E|--------------------------------|--------------------------------|
B|--------------------------------|------------------------------ 3|
G| 3-------------------------- 1--| 5---------- 3 1-------- 3---- 5|
D|---- 6-------- 3---- 1------ 1--|---- 6------ 6------ 1------ 3--|
A|------------------------------ 6|------ 5------ 3-------- 1------|
E| 6------ 4------ 3------ 1------|--------------------------------|
http://classicalguitartablature.blogspot.com/
E|--------------------------------|------ 3------------------------|
B|---------------------- 4--------| 6---- 1-------- 4------ 3------|
G|------------ 3-- 1------ 5------| 3---- 1-------- 5------ 3------|
D|---- 3------ 2------ 1------ 6--|---- 6------ 1------ 6-- 3-- 3--|
A|------------------------ 6------| 5------ 3----------------------|
E| 4---- 3-------- 1--------------|---------------- 6------ 4------|
http://classicalguitartablature.blogspot.com/
E|--------------------------------|--------------------------------|
B| 4-- 4---------- 4-- 4------ 4--| 4-- 4------ 4-- 4-- 4------ 4--|
G| 3-- 3------ 3-- 5-- 5------ 5--| 1-- 1------ 1-- 4-- 4------ 5--|
D| 3---- 3------ 3 5---- 5---- 6--| 3-- 3------ 1-- 3-- 3------ 4--|
A|--------------------------------| 2------ 3------ 4------ 5------|
E| 3------ 4------ 5------ 6------|--------------------------------|
http://classicalguitartablature.blogspot.com/
E| 6------------------------------| 3-------------------------- 3--|
B| 6---------------------- 9------| 4---- 4-------- 6---- 3--------|
G| 5------------------ 3-- 8------| 5------ 4------ 3---- 1---- 1--|
D|---- 5------ 5------ 5------ 6--|---- 5------ 3-- 5-- 5 3--------|
A| 6------ 5------ 3--------------|--------------------------------|
E|------------------------ 7------| 5------ 4------ 3------ 1------|
http://classicalguitartablature.blogspot.com/
E|--------------------------------|--------------------------------|
B|--------------------------------|--------------------------------|
G| 3-- 3------------------ 5------| 5------------------ 1 3--------|
D| 5-- 5------ 3------ 5-- 5------|---- 3-------------- 1------ 6--|
A| 6------ 5------ 3--------------|--------------------------------|
E|------------------------ 6-- 5--| 4------ 3-- 2 1------ 0--------|
http://classicalguitartablature.blogspot.com/
E|--------------------------------|---- 4---------- 6-- 8----------|
B| 4---------------------- 6------| 8-- 7---------- 5-- 9-------- 6|
G| 3---------- 3---------- 7------| 6---- 6---- 6-- 3-- 9------ 9 8|
D| 5-- 5------ 3------ 3------ 6--| 5---------- 4-- 5---------- 8 6|
A| 6------ 5------ 3--------------|------------------------ 9------|
E|------------------------ 7------| 6------ 5------ 3--------------|
http://classicalguitartablature.blogspot.com/
E|--------------------------------|--------------------------------|
B|---- 6--------------------------|--------------------------------|
G|---- 8------ 7-- 5---------- 3--| 1---------- 1-- 3---------- 3--|
D|---- 6------ 6------ 6------ 6--|---- 1------ 3------ 3------ 2--|
A| 8------ 7------ 6------ 5------| 3------ 1----------------------|
E|--------------------------------|---------------- 4------ 3------|
http://classicalguitartablature.blogspot.com/
E| 4------------------------------|---------------------- 1--------|
B| 4------------------------------| 6------ 3------ 4---- 2--------|
G| 3---------- 1-- 6---------- 5--| 3------ 4------ 3---------- 2--|
D|---- 2------ 1------ 8------ 6--|---- 6------ 3------ 2----------|
A|---------------- 7------ 6------| 5------ 4------ 3------ 2------|
E| 2------ 1----------------------|--------------------------------|
http://classicalguitartablature.blogspot.com/
E|--------------------------------|--------------------------------|
B|--------------------------------|------------------------------ 3|
G| 3-------------------------- 1--| 5---------- 3 1-------- 3---- 5|
D|---- 6-------- 3---- 1------ 1--|---- 6------ 6------ 1------ 3--|
A|------------------------------ 6|------ 5------ 3-------- 1------|
E| 6------ 4------ 3------ 1------|--------------------------------|
http://classicalguitartablature.blogspot.com/
E|--------------------------------|------ 3------------------------|
B|---------------------- 4--------| 6---- 1-------- 4------ 3------|
G|------------ 3-- 1------ 5------| 3---- 1-------- 5------ 3------|
D|---- 3------ 2------ 1------ 6--|---- 6------ 1------ 6-- 3-- 3--|
A|------------------------ 6------| 5------ 3----------------------|
E| 4---- 3-------- 1--------------|---------------- 6------ 4------|
http://classicalguitartablature.blogspot.com/
E|--------------------------------|--------------------------------|
B| 4-------------- 4--------------|--------------------------------|
G| 3-- 3-- 5---- 4------------ 0 5|------------ 5-- 4---------- 1--|
D| 3-- 3------ 3------ 3------ 0--|---- 7------ 6------ 3------ 3--|
A|------------------------------ 6|------ 5------ 4------ 2--------|
E| 3------ 4---- 3------ 1--------|--------------------------------|
http://classicalguitartablature.blogspot.com/
E|11--------------------10------ 8|-------- 5------ 6------ 8------|
B| 8---------------------- 8---- 8|-------- 4------ 6------ 6------|
G| 8-- 8------10------12-- 7---- 8|-------- 3------ 5------ 6------|
D|---- 8------ 9------10------ 8--|---- 8------ 5------ 4------ 5--|
A|------------------------ 7------| 8------------------------------|
E| 8------10----11----------------|-------- 3------ 4------ 5------|
http://classicalguitartablature.blogspot.com/
E|10---------------------- 6------| 1---------------------------- 9|
B|10-------------- 6------ 8------| 3---------------------------- 6|
G|10--10-- 8------ 5---------- 7--|---- 3-- 2---- 3------ 5------ 6|
D|------------ 8------ 5----------|------------ 1------ 1------ 3--|
A|---------------- 5------ 7------|--------------------------------|
E| 6------ 8----------------------| 1------ 2------ 3---- 5------ 6|
http://classicalguitartablature.blogspot.com/
E|---------------------- 8------ 6|------ 3-------- 4---- 6--------|
B|---------------------- 9------ 6|------ 2------ 4------ 4--------|
G|---- 6------ 8------1010------ 6|-------- 1------ 3------ 4------|
D|------------ 7------ 8------10--|---- 6------ 3------ 2------ 3--|
A|------------------------------ 6|--------------------------------|
E|------ 8------ 9------10--------|-------- 1------ 2------ 3------|
http://classicalguitartablature.blogspot.com/
E| 8------------------------------| 7------------------------------|
B| 8-------------- 4------ 4------| 4-------------------- 4--------|
G| 8-- 8------ 6-- 3------ 3------| 4------ 1---- 4-------- 5------|
D|------------ 6------ 3------ 5--| 4-- 4------ 1------ 4-- 6-- 6--|
A|---------------- 3------ 4------| 6------------------------------|
E| 4------ 6----------------------|-------- 2---- 4-------- 6------|
http://classicalguitartablature.blogspot.com/
E| 6------------------------------| 3-------------------------- 3--|
B| 6---------------------- 9------| 4---- 4-------- 6---- 3--------|
G| 5------------------ 3-- 8------| 5------ 4------ 3---- 1---- 1 3|
D|---- 5------ 5------ 5------ 6--|---- 5------ 3-- 5-- 5 3--------|
A| 6------ 5------ 3--------------|--------------------------------|
E|------------------------ 7------| 5------ 4------ 3------ 1---- 0|
http://classicalguitartablature.blogspot.com/
E|--------------------------------|--------------------------------|
B|--------------------------------|---------------------- 1--------|
G|-------------- 3-------------- 6|-------------- 3------ 3--------|
D|---- 5------ 5------ 5------ 5--|---- 5------ 5------ 2------ 2--|
A|------ 6------ 4------ 3--------|--------------------------------|
E|------------------------------ 6|------ 5------ 3------ 2--------|
http://classicalguitartablature.blogspot.com/
E|-------------- 4------ 8--------| 6------------ 1------ 3--------|
B| 1------ 6-- 8 6------ 8--------| 5------------ 2------ 1------ 4|
G| 1------ 7-- 7------ 5 7--------| 3-- 3 3------------ 2 1------ 5|
D|---- 1-- 6-- 6-------------- 6--|------------ 2-------------- 1 5|
A|-------------- 6------ 5--------| 4---- 3------ 2-------- 1------|
E| 1------ 0----------------------|------------------------------ 5|
http://classicalguitartablature.blogspot.com/
E|---------------------- 3--------|---- 4-------- 6------ 8--------|
B|------------ 6-------- 3--------|---- 4---------- 8---- 8--------|
G|------------ 5-------- 3--------|---- 3-------- 8------ 7------ 7|
D|------------ 4------------------|--------------------------------|
A|--------------------------------|-------------- 8------ 7------ 6|
E|------------ 4---------- 3------|---- 2--------------------------|
http://classicalguitartablature.blogspot.com/
E|10------------------------------|--------------------------------|
B| 8------------------------------|--------------------------------|
G|--------------------------------|--------------------------------|
D|--------------------------------|--------------------------------|
A|--------------------------------|--------------------------------|
E|--------------------------------|--------------------------------|
http://classicalguitartablature.blogspot.com/
0 com

For The Love Of God (BASIC)

Steve Vai's tune fingerstyle chord melody guitar BASIC arrangement played in the key of Em. For The Love Of God - Steve Vai - BASIC ARRANGEMENT played in the key of Em
http://classicalguitartablature.blogspot.com/
E|------------------------------ 7|-------------- 7----------------|
B|--------------------------10----|---------- 8------ 8------------|
G|-------------------- 7----------|------11--------------11--------|
D|---------------- 9--------------|-- 9---------------------- 9----|
A|--------------------------------|--------------------------------|
E|------------------------------ 0|------------------------------ 0|
http://classicalguitartablature.blogspot.com/
E|--------------12--10-- 7------ 7|----------10--------------------|
B|-------------------------- 8----|--------------10----------------|
G|------------ 0---------------- 9|-------- 9-------- 9------ 9----|
D|-------- 4----------------------|----10----------------10--------|
A|---- 2--------------------------| 8------------------------------|
E|--------------------------------|--------------------------------|
http://classicalguitartablature.blogspot.com/
http://classicalguitartablature.blogspot.com/
E|------------------------------ 7|-------------- 7----------------|
B|----------10--------------10----|---------- 8------ 8------------|
G|-------- 9---------- 7----------|------11--------------11--------|
D|----10---------- 9--------------|-- 9---------------------- 9----|
A| 8------------------------------|--------------------------------|
E|------------------------------ 0|------------------------------ 0|
http://classicalguitartablature.blogspot.com/
E|--------------12--10-- 7------ 7|----------10-------------- 7----|
B|-------------------------- 8-- 8|------ 8------10------10--------|
G|------------ 0---------------- 9|-- 9-------------- 9------------|
D|-------- 4----------------------|--------------------------------|
A|---- 2------------------------ 0|--------------------------------|
E|--------------------------------|--------------------------------|
http://classicalguitartablature.blogspot.com/
E|------------ 7 7-------------- 7|-------------- 7----------------|
B|------10--------------10-- 8----|---------- 8------ 8------------|
G|-- 9----------------------------|------11--------------11--------|
D|--------------------------------|-- 9---------------------- 9----|
A| 0------------------------------|--------------------------------|
E|------------------------------ 0|------------------------------ 0|
http://classicalguitartablature.blogspot.com/
E|--------------12--10-- 7------ 7|----------10---------------- 7--|
B|-------------------------- 8-- 8|------ 8----1010--------10------|
G|------------ 0------------------|---- 9-------------- 9----------|
D|-------- 4----------------------|--------------------------------|
A|---- 2--------------------------|--------------------------------|
E|------------------------------ 8|--------------------------------|
http://classicalguitartablature.blogspot.com/
E|--------------12--10------------| 7-------- 7-- 7-------------- 5|
B|---------- 8----------12-- 8----|--------------------------10-- 5|
G|------ 9---------------------- 9|------ 9-------------- 9--------|
D|----10--------------------------|----10------------10------------|
A|------------------------------ 8|------------------------------ 8|
E| 8------------------------------|--------------------------------|
http://classicalguitartablature.blogspot.com/
E|---------- 5-------------- 0----| 0------------------------------|
B|-------------- 8---- 7----------|-------------- 0----------------|
G|-- 5------------------------ 7--|------------ 0---- 0------------|
D|-------- 7----------------------|-------- 4------------ 4--------|
A|--------------------------------|---- 2-------------------- 2----|
E|--------------------------------| 0---------------------------- 0|
http://classicalguitartablature.blogspot.com/
E|--------------------------------|--------------------------------|
B|-------------- 0------------ 3 3|---- 0 0------------------ 0----|
G|---------- 0-------- 0-------- 0|---- 0 0-- 2-- 2---- 0 0--------|
D|------ 4---------------- 4---- 0|---- 0 0-------- 0------------ 2|
A|-- 2----------------------------|--------------------------------|
E|--------------------------------| 3-------------- 3--------------|
http://classicalguitartablature.blogspot.com/
E|--------------------------------|--------------------------------|
B|---------------- 0-------- 3----| 3 0-- 0------------------ 0----|
G|---- 0------ 0---- 0---------- 2|-- 2-- 2-- 2---- 2 0-- 0--------|
D|-------- 0-------------- 0---- 3|---------------- 3 3---------- 2|
A|--------------------------------|--------------------------------|
E| 3---------------------------- 1|---------------- 1------------ 1|
http://classicalguitartablature.blogspot.com/
E|--------------------------------|--------------------------------|
B|-------------- 0---------- 3-- 3|-- 0------ 0---------- 0------ 0|
G|-- 0-------- 0---- 0---------- 0|------ 2---------- 0------ 2 0 0|
D|-------- 0------------ 0------ 0|-------------- 0----------------|
A|--------------------------------|--------------------------------|
E|------------------------------ 0|--------------------------------|
http://classicalguitartablature.blogspot.com/
E|------------------------------ 0|--------------------------------|
B|-------------- 0-------------- 3|---------- 3-------------- 3----|
G|------ 0-- 2 0 0-------------- 5|------ 5-------------- 5--------|
D|-- 0-------------- 0-- 2-- 0----|---- 5------------ 5------------|
A|------------------------------ 5|------------------------------ 5|
E| 0------------ 0----------------|--------------------------------|
http://classicalguitartablature.blogspot.com/
E|------------------------------12|----------10--------------121012|
B|---------- 3------------------12|------12--------------12------12|
G|------ 5---------- 5------ 5--11|--11--------------11------------|
D|-- 5------------------ 5--------|--------------------------------|
A|------------------------------10|--------------10--------------10|
E|--------------------------------|--------------------------------|
http://classicalguitartablature.blogspot.com/
E|10---------------------------- 1|-- 0------ 0--------------------|
B|------12------121312--10------ 1|-- 1-- 3-- 1------ 1-- 1--------|
G|----------11--11----------12-- 2|-- 2-- 2-- 2------ 2-- 2--------|
D|--------------------------------|------ 3---------- 3-- 3-- 3----|
A|--------------10----------------|--------------------------------|
E|------------------------------ 1|-------------- 1-------------- 1|
http://classicalguitartablature.blogspot.com/
E|--------------------------------|17----------171514--------------|
B|---------- 1--------------------| 0------ 0-------- 015-------- 8|
G|------ 2---------------- 2------|---- 0----------------14------ 7|
D|-- 3-------------- 3-------- 3--|------------------------------ 7|
A|--------------------------------|--------------------------------|
E|-------------- 1----------------| 0-------------- 0------------ 0|
http://classicalguitartablature.blogspot.com/
E|------------------------------ 7|-- 5----------------------------|
B|-- 7-------------------------- 5|---- 8 7-- 5 7 3----------------|
G|---- 7------------------------ 5|-- 5 5---- 5 5-- 2---- 2--------|
D|------ 7------ 5 4 5 7 5--------|------ 5-- 5 5------ 4------ 4--|
A|------------------------------ 5|---------------- 5--------------|
E|-------------- 0----------------|--------------------------------|
http://classicalguitartablature.blogspot.com/
E|------------------------------ 7|-------------- 7----------------|
B|------------ 3------------10----|---------- 8------ 8------------|
G|-------- 2---------- 7----------|------11--------------11--------|
D|---- 4-------- 9----------------|-- 9---------------------- 9----|
A| 5------------------------------|--------------------------------|
E|--------------10-------------- 0|------------------------------ 0|
http://classicalguitartablature.blogspot.com/
E|--------------12--10-- 7------ 7|----------10--------------------|
B|-------------------------- 8----|--------------10----------------|
G|------------ 0---------------- 9|-------- 9-------- 9------ 9----|
D|-------- 4----------------------|----10----------------10--------|
A|---- 2--------------------------| 8------------------------------|
E|--------------------------------|--------------------------------|
http://classicalguitartablature.blogspot.com/
E|------------------------------ 7|-------------- 7----------------|
B|----------10--------------10----|---------- 8------ 8------------|
G|-------- 9---------- 7----------|------11--------------11--------|
D|----10---------- 9--------------|-- 9---------------------- 9----|
A| 8------------------------------|--------------------------------|
E|------------------------------ 0|------------------------------ 0|
http://classicalguitartablature.blogspot.com/
E|--------------12--10-- 7------ 7|----------10-------------- 7----|
B|-------------------------- 8-- 8|------ 8------10------10--------|
G|------------ 0---------------- 9|-- 9-------------- 9------------|
D|-------- 4----------------------|--------------------------------|
A|---- 2------------------------ 0|--------------------------------|
E|--------------------------------|--------------------------------|
http://classicalguitartablature.blogspot.com/
E|------------ 7 7-------------- 7|-------------- 7----------------|
B|------10--------------10-- 8----|---------- 8------ 8------------|
G|-- 9----------------------------|------11--------------11--------|
D|--------------------------------|-- 9---------------------- 9----|
A| 0------------------------------|--------------------------------|
E|------------------------------ 0|------------------------------ 0|
http://classicalguitartablature.blogspot.com/
E|--------------12--10-- 7------ 7|----------10---------------- 7--|
B|-------------------------- 8-- 8|------ 8----1010--------10------|
G|------------ 0------------------|---- 9-------------- 9----------|
D|-------- 4----------------------|--------------------------------|
A|---- 2--------------------------|--------------------------------|
E|------------------------------ 8|--------------------------------|
http://classicalguitartablature.blogspot.com/
E|--------------12--10------------| 7-------- 7-- 7-------------- 5|
B|---------- 8----------12-- 8----|--------------------------10-- 5|
G|------ 9---------------------- 9|------ 9-------------- 9--------|
D|----10--------------------------|----10------------10------------|
A|------------------------------ 8|------------------------------ 8|
E| 8------------------------------|--------------------------------|
http://classicalguitartablature.blogspot.com/
E|---------- 5-------------- 0----| 0------------------------------|
B|-------------- 8---- 7----------|-------------- 0----------------|
G|-- 5------------------------ 7--|------------ 0---- 0------------|
D|-------- 7----------------------|-------- 4------------ 4--------|
A|--------------------------------|---- 2-------------------- 2----|
E|--------------------------------| 0---------------------------- 0|
http://classicalguitartablature.blogspot.com/
E|--------------------------------| 7------------------------------|
B|--------------------------10----| 8------------------------------|
G|---------- 0-------- 7--------11|--------------------------------|
D|-------- 4---- 9----------------|--------------------------------|
A|-- 2----------------------------|--------------------------------|
E|------------------------------ 0|--------------------------------|
http://classicalguitartablature.blogspot.com/
0 com

I Only Want To Be With You (BASIC)

Dusty Springfield's tune fingerstyle chord melody guitar BASIC arrangement played in the key of G. I Only Want To Be With You-Dusty Springfield - BASIC ARRANGEMENT played in the key of G
http://classicalguitartablature.blogspot.com/
E| 8------ 7---------------- 7----|-- 5-- 5---------- 5-------- 7--|
B| 5------ 7------10-- 8---- 5----|-- 5-- 5------ 8-- 5------------|
G| 5------ 7------ 9-- 9---- 5----|-------------- 5-- 5-------- 5--|
D|---- 5------ 7--10-- 9----------|------------ 5 5----------------|
A|------------------------------ 5|---------------------- 5--------|
E| 5------ 7------ 8-- 9----------|--------------------------------|
http://classicalguitartablature.blogspot.com/
E| 8-- 7 5------ 5-- 5-------- 3--|--------------------------------|
B| 5---- 5-- 8-- 5-- 5------ 0----|-------- 1---- 0------------ 3--|
G| 5-- 5 5-- 5-- 5---- 5---- 0----|-------- 0---- 0-------- 0------|
D|---------- 5------------ 5------|---- 0 2---- 2---- 0------------|
A|---------------- 5--------------|------------------------------10|
E| 5---------------------------- 3|--------------------------------|
http://classicalguitartablature.blogspot.com/
http://classicalguitartablature.blogspot.com/
E| 7------------------------------| 0------------------------------|
B|10--10--10-- 8-- 8-- 7-- 7------| 0-- 0------ 0-------------- 3--|
G| 0-- 0-- 0------ 0---------- 9--| 0---------------------- 0------|
D|---- 9-- 9------ 9--------------|-------- 0---------- 0----------|
A|--------------10----------------|------------------------------10|
E|--------------------------------| 0-------------- 0--------------|
http://classicalguitartablature.blogspot.com/
E| 7------------------------------| 0------------------------------|
B|10--10--10-- 8-- 8-- 7-- 7------| 0-- 0------ 0------------ 0----|
G| 0-- 0-- 0------ 0---------- 9--|---------------------- 0--------|
D|---- 9-- 9------ 9--------------|-------- 0---------- 0----------|
A|--------------10----------------|--------------------------------|
E|--------------------------------| 0-------------- 0--------------|
http://classicalguitartablature.blogspot.com/
E|-------- 0 3-- 2-- 2------------|---- 7------ 5------------------|
B| 1------------ 3-- 3------ 0----|------------ 5------------------|
G| 0------------ 2----------------| 5---------- 5-------- 5---- 7 0|
D| 2-- 2---------- 4------ 4------| 5------ 5---------- 5----------|
A| 3-------------- 5--------------|---------------- 5------------10|
E|--------------------------------| 5------------------------------|
http://classicalguitartablature.blogspot.com/
E| 7------------------------------| 7-- 0------ 0------------ 0-- 8|
B|10--10--10 8---- 8 7---- 8--10--| 0---------------------------- 5|
G|---------------- 0--------------| 0-------------------- 0------ 5|
D|-------------- 9----------------|-------- 0---------- 0----------|
A|--------------10----------------|--------------------------------|
E|--------------------------------| 0-------------- 0------------ 5|
http://classicalguitartablature.blogspot.com/
E|------ 7------------------ 7----|-- 5-- 5---------- 5-------- 7--|
B|------ 7------10-- 8------ 5----|-- 5-- 5------ 8-- 5------------|
G|------ 7------ 9---- 9---- 5----|-------------- 5-- 5-------- 5--|
D|---- 5---- 7--10-- 9------------|------------ 5 5----------------|
A|------------------------------ 5|---------------------- 5--------|
E|-------- 7---- 8---- 9----------|--------------------------------|
http://classicalguitartablature.blogspot.com/
E| 8-- 7 5------ 5-- 5-------- 3--|--------------------------------|
B| 5---- 5-- 8-- 5-- 5-------- 0--|------ 1------ 0---------- 0----|
G| 5-- 5 5-- 5-- 5---- 5------ 0--|------ 0------ 0-------- 0------|
D|---------- 5------------ 5------|---- 0 2---- 2---- 0------------|
A|---------------- 5--------------|--------------------------------|
E| 5------------------------------| 3------------------------------|
http://classicalguitartablature.blogspot.com/
E|--------------------------------|--------------------------------|
B|------ 8------ 6-------- 6------| 8-- 8---- 6---------- 6------ 3|
G|------ 7------ 7------------ 8--| 7-- 7---- 7-------------- 8-- 0|
D|---- 8---- 8-------- 8----------| 8-- 8------------ 8---------- 0|
A| 6------------------------------| 6------------------------------|
E|--------------------------------|------------------------------ 3|
http://classicalguitartablature.blogspot.com/
E|-------------- 0---- 3------ 0--|--------------------------------|
B|------ 3------ 1-- 1-------- 0--|---- 3---------------------- 0--|
G|------ 0------ 0---- 0------ 0--|---- 0------ 0---------- 0---- 2|
D|-- 0------ 0-- 2----------------|-------- 0---------- 0-------- 4|
A|--------------------------------|------------------------------ 5|
E|-------------- 3----------------| 3-------------- 3--------------|
http://classicalguitartablature.blogspot.com/
E|---------------------------- 2--|---- 2------ 5------------ 5-- 3|
B|---------------- 3-- 3---- 3----|---- 3------ 3------------------|
G|-------- 2---- 2---- 2---- 2----|---------------------- 2------ 0|
D|---- 4------ 4------------------|-------- 4---------- 4----------|
A|--------------------------------| 2-------------- 2--------------|
E|--------------------------------|------------------------------ 0|
http://classicalguitartablature.blogspot.com/
E|-------- 3------ 2-- 3------ 5--|------ 5------ 7-- 5------ 5----|
B| 0------ 0------ 0---------- 5--|-------------- 5------ 8--------|
G|---- 0------ 0 0------ 0---- 5--|-- 5------ 7-- 5----------------|
D|--------------------------------|--------------------------------|
A|-------------- 0----------------|-------------- 5--------------10|
E|------------------------------ 5|--------------------------------|
http://classicalguitartablature.blogspot.com/
E| 7------------------------------| 0------------------------------|
B|10--10--10-- 8-- 8-- 7-- 7------| 0-- 0------ 0-------------- 3--|
G| 0-- 0-- 0------ 0---------- 9--| 0---------------------- 0------|
D|---- 9-- 9------ 9--------------|-------- 0---------- 0----------|
A|--------------10----------------|------------------------------10|
E|--------------------------------| 0-------------- 0--------------|
http://classicalguitartablature.blogspot.com/
E| 7------------------------------| 0------------------------------|
B|10--10--10-- 8-- 8-- 7-- 7------| 0-- 0------ 0------------ 0----|
G| 0-- 0-- 0------ 0---------- 9--|---------------------- 0--------|
D|---- 9-- 9------ 9--------------|-------- 0---------- 0----------|
A|--------------10----------------|--------------------------------|
E|--------------------------------| 0-------------- 0--------------|
http://classicalguitartablature.blogspot.com/
E|-------- 0 3-- 2-- 2------------|---- 7------ 5------------------|
B| 1------------ 3-- 3------ 0----|------------ 5------------------|
G| 0------------ 2----------------| 5---------- 5-------- 5---- 7 0|
D| 2-- 2---------- 4------ 4------| 5------ 5---------- 5----------|
A| 3-------------- 5--------------|---------------- 5------------10|
E|--------------------------------| 5------------------------------|
http://classicalguitartablature.blogspot.com/
E| 7------------------------------| 7-- 0------ 0------------ 0-- 8|
B|10--10--10 8---- 8 7---- 8--10--| 0---------------------------- 5|
G|---------------- 0--------------| 0-------------------- 0------ 5|
D|-------------- 9----------------|-------- 0---------- 0----------|
A|--------------10----------------|--------------------------------|
E|--------------------------------| 0-------------- 0------------ 5|
http://classicalguitartablature.blogspot.com/
E|------ 7------------------ 7----|-- 5-- 5---------- 5-------- 7--|
B|------ 7------10-- 8------ 5----|-- 5-- 5------ 8-- 5------------|
G|------ 7------ 9---- 9---- 5----|-------------- 5-- 5-------- 5--|
D|---- 5---- 7--10-- 9------------|------------ 5 5----------------|
A|------------------------------ 5|---------------------- 5--------|
E|-------- 7---- 8---- 9----------|--------------------------------|
http://classicalguitartablature.blogspot.com/
E| 8-- 7 5------ 5-- 5-------- 3--|---------------------------- 0--|
B| 5---- 5-- 8-- 5-- 5-------- 0--|-------- 1------ 0--------------|
G| 5-- 5 5-- 5-- 5---- 5------ 0--|-------- 0---- 0-------- 0------|
D|---------- 5------------ 5------|---- 0---- 2-------- 0----------|
A|---------------- 5--------------|--------------------------------|
E| 5---------------------------- 3|--------------------------------|
http://classicalguitartablature.blogspot.com/
E| 8------ 7---------------- 7----|-- 5-- 5---------- 5-------- 7--|
B| 5------ 7----10---- 8---- 5----|-- 5-- 5------ 8-- 5------------|
G| 5------ 7------ 9-- 9---- 5----|-------------- 5-- 5-------- 5--|
D|---- 5------ 7--10-- 9----------|------------ 5 5----------------|
A|------------------------------ 5|---------------------- 5--------|
E| 5------ 7------ 8-- 9----------|--------------------------------|
http://classicalguitartablature.blogspot.com/
E| 8-- 7 5------ 5-- 5-------- 3--|--------------------------------|
B| 5---- 5-- 8-- 5-- 5-------- 0--|------ 1------ 0---------- 0----|
G| 5-- 5 5-- 5-- 5---- 5------ 0--|------ 0------ 0-------- 0------|
D|---------- 5------------ 5------|---- 0 2---- 2---- 0------------|
A|---------------- 5--------------|--------------------------------|
E| 5------------------------------| 3------------------------------|
http://classicalguitartablature.blogspot.com/
E|--------------------------------|--------------------------------|
B|-------- 1------ 0--------------| 0------------------------------|
G|-------- 0------ 0------ 0------|-------- 0----------------------|
D|-- 0-------- 2------ 0----------|--------------------------------|
A|--------------------------------|--------------------------------|
E| 3------------------------------|--------------------------------|
http://classicalguitartablature.blogspot.com/
0 com

I Can't Believe That You Are In Love With Me (Intermediate)

Jazz standards fingerstyle chord melody guitar intermediate arrangement played in the key of C.
I Can't Believe That You're In Love With Me played in the key of C.
http://classicalguitartablature.blogspot.com/
E| 3---------- 0-------------- 0--| 3------------ 3------------ 5--|
B| 6---------- 1 3------------ 0--| 6---------- 5 3------------ 3--|
G| 4---------- 2 1------------ 0--| 5---------- 3------ 2------ 2--|
D|---- 3 2------------ 3----------|---- 3------ 5------------------|
A|--------------------------------| 5------ 4---- 3-------- 2------|
E| 3------ 2---- 1------ 0--------|--------------------------------|
http://classicalguitartablature.blogspot.com/
E| 8------------------------------|---------------------------- 810|
B| 8------------------------------|---------------------------- 9--|
G| 7------------------ 5------ 5--| 2---------- 2------ 2------ 9--|
D|---- 7------ 7---- 3------ 3----|---- 2------ 2---- 0------------|
A|--------------------------------|--------------------------------|
E| 8------ 7------ 5------ 4------| 3------ 2---- 1-------- 0------|
http://classicalguitartablature.blogspot.com/
http://classicalguitartablature.blogspot.com/
E|------------ 8-------------- 8--|10---------- 8-------------- 810|
B|10---------- 8--10----------11--| 9---------- 6 9------------ 6 8|
G|---- 9------ 7--10----------10--|----10------ 7 7------------ 5--|
D|--------------------10----------|-------------------- 6----------|
A| 8------ 7----------------------|------------------------------10|
E|----------------10---- 9--------| 8------ 7---- 6------ 4--------|
http://classicalguitartablature.blogspot.com/
E|------------ 8 5------------1210|------------ 8-- 5--------------|
B|------------10 8------------1313|------------ 7-- 8------ 5------|
G|---- 9------ 9 5------------1211|------------ 7-- 7------ 5------|
D|-------------------- 5----------|----10 7------------ 5------ 4--|
A|------ 9-------- 7--------------|--------------------------------|
E|------------------------11----10|-------- 8------ 7------ 5------|
http://classicalguitartablature.blogspot.com/
E| 3---------- 0-------------- 0--| 3---------------------------- 3|
B| 6---------- 1 3------------ 0--| 6---------- 5-- 3---------- 5 3|
G| 4---------- 2 1------------ 0--| 5---------- 3-- 2---------- 2--|
D|---- 3 2------------ 3----------|---- 3------ 5------ 3------ 3--|
A|--------------------------------| 5------ 4------ 3------ 2------|
E| 3------ 2---- 1------ 0--------|--------------------------------|
http://classicalguitartablature.blogspot.com/
E|--------------------------------|------------------------------10|
B|--------------------------------|--------------------------------|
G| 2---------------------------- 2|------------ 0------ 3------ 5--|
D|---- 2------ 2------ 2------ 2--|---- 0------ 2------ 3------ 8--|
A| 3------ 2---- 0----------------|-------------- 5------ 7--------|
E|---------------------- 3--------| 1------ 0----------------------|
http://classicalguitartablature.blogspot.com/
E|------------ 8-------------- 8--|10---------- 8-------------- 810|
B|10---------- 8--10----------11--| 9---------- 6 9------------ 6 8|
G|---- 9------ 7--10----------10--|----10------ 7 7------------ 5--|
D|--------------------10----------|-------------------- 6----------|
A| 8------ 7----------------------|------------------------------10|
E|----------------10---- 9--------| 8------ 7---- 6------ 4--------|
http://classicalguitartablature.blogspot.com/
E|------------ 8 5------------1210|------------ 8-- 5--------------|
B|------------10 8------------1313|------------ 7-- 8------ 5------|
G|---- 9------ 9 5------------1211|------------ 7-- 7------ 5------|
D|-------------------- 5----------|----10 7------------ 5------ 4--|
A|------ 9-------- 7--------------|--------------------------------|
E|------------------------11----10|-------- 8------ 7------ 5------|
http://classicalguitartablature.blogspot.com/
E| 3---------- 0-------------- 0--| 3------------ 3------------ 5--|
B| 6---------- 1 3------------ 0--| 6---------- 5 3------------ 3--|
G| 4---------- 2 1------------ 0--| 5---------- 3------ 2------ 2--|
D|---- 3 2------------ 3----------|---- 3------ 5------------------|
A|--------------------------------| 5------ 4---- 3-------- 2------|
E| 3------ 2---- 1------ 0--------|--------------------------------|
http://classicalguitartablature.blogspot.com/
E| 8------------------------------|------------------------------12|
B| 8------------------------------|------------------------------12|
G| 7------------------ 5------ 5--| 2---------- 2------ 2------ 6--|
D|---- 7------ 7---- 3------ 3----|---- 2------ 2------ 1------ 5--|
A|--------------------------------|---------------------- 6--------|
E| 8------ 7------ 5------ 4------| 3------ 2---- 1----------------|
http://classicalguitartablature.blogspot.com/
E|-------------- 7------------ 912|------------ 9 7-------------- 7|
B|------------1410------------10 7|------------ 8 7------------ 5--|
G|13----------13 9------------ 9 7|------------ 6 7------------ 4--|
D|----12------12------ 7----------|---- 7-------------- 7------ 3--|
A|--------------------------------|--------------------------------|
E| 0------10------ 9---- 8--------| 7---- 6-------- 5---- 4--------|
http://classicalguitartablature.blogspot.com/
E|------------------------------ 5|------------------------------10|
B| 7------------------------------| 5----------------------------13|
G| 6-------------- 2---------- 2--| 6---------- 7------ 9------ 911|
D|---- 5------ 5------ 0------ 2--|---- 5------ 5---- 7------ 7----|
A| 0------------------------------|--------------------------------|
E|-------- 3------ 2------ 3------| 5------ 7---- 8------ 9------10|
http://classicalguitartablature.blogspot.com/
E|---------------- 5---------- 7--|10---------- 7-- 5------------ 5|
B|------------12-- 8---------- 8--| 8---------- 6-- 5---------- 3 3|
G|------------11-- 7---------- 7--| 9---------- 4-- 5---------- 2 4|
D|----10------10-------- 5--------|---- 7-------------- 5------ 1--|
A|--------------------------------| 0------------------------------|
E|-------- 8------ 7---- 6--------|-------- 4------ 3---- 2------ 3|
http://classicalguitartablature.blogspot.com/
E|------------------------------ 3|---------------------------- 810|
B|------------------------------ 3|---------------------------- 9--|
G|-------------------- 7------ 7 3|---- 3-- 5-- 5------ 5------ 9--|
D|---- 3------ 3---- 5---- 5------|------------ 3------ 5----------|
A|------------------------------ 3|-------- 5---- 6-------- 7------|
E|-------- 5---- 6------ 7--------|--------------------------------|
http://classicalguitartablature.blogspot.com/
E|------------ 8-------------- 8--|10---------- 8-------------- 810|
B|10---------- 8--10----------11--| 9---------- 6 9------------ 6 8|
G|---- 9------ 7--10----------10--|----10------ 7 7------------ 5--|
D|--------------------10----------|-------------------- 6----------|
A| 8------ 7----------------------|------------------------------10|
E|----------------10---- 9--------| 8------ 7---- 6------ 4--------|
http://classicalguitartablature.blogspot.com/
E|------------ 8 5------------1210|------------ 8-- 5--------------|
B|------------10 8------------1313|------------ 7-- 8------ 5------|
G|---- 9------ 9 5------------1211|------------ 7-- 7------ 5------|
D|-------------------- 5----------|----10 7------------ 5------ 4--|
A|------ 9-------- 7--------------|--------------------------------|
E|------------------------11----10|-------- 8------ 7------ 5------|
http://classicalguitartablature.blogspot.com/
E| 3---------- 0-------------- 0--| 3------------ 3------------ 5--|
B| 6---------- 1 3------------ 0--| 6---------- 5 3------------ 3--|
G| 4---------- 2 1------------ 0--| 5---------- 3------ 2------ 2--|
D|---- 3 2------------ 3----------|---- 3------ 5------------------|
A|--------------------------------| 5------ 4---- 3-------- 2------|
E| 3------ 2---- 1------ 0--------|--------------------------------|
http://classicalguitartablature.blogspot.com/
E| 8------------------------------|------------------------------ 3|
B| 8------------------------------|---------------------------- 5 6|
G| 7------------------ 5------ 5--| 2---------- 2------ 2------ 2 4|
D|---- 7------ 7---- 3------ 3----|---- 2------ 2---- 0-------- 4--|
A|--------------------------------|--------------------------------|
E| 8------ 7------ 5------ 4------| 3------ 2---- 1------ 2--------|
http://classicalguitartablature.blogspot.com/
E|------------ 0-------------- 0--| 3------------ 3------------ 5--|
B|------------ 1 3------------ 0--| 6---------- 5 3------------ 3--|
G|------------ 2 1------------ 0--| 5---------- 3------ 2------ 2--|
D|---- 3 2------------ 3----------|---- 3------ 5------------------|
A|--------------------------------| 5------ 4---- 3-------- 2------|
E| 3------ 2---- 1------ 0--------|--------------------------------|
http://classicalguitartablature.blogspot.com/
E| 8------------------------------|------------------------------ 3|
B| 8------------------------------|---------------------------- 5 6|
G| 7------------------ 5------ 5--| 2---------- 2------ 2------ 2 4|
D|---- 7------ 7---- 3------ 3----|---- 2------ 2---- 0-------- 4--|
A|--------------------------------|--------------------------------|
E| 8------ 7------ 5------ 4------| 3------ 2---- 1------ 2--------|
http://classicalguitartablature.blogspot.com/
E|------------ 0-------------- 0--| 3------------ 3------------ 5--|
B|------------ 1 3------------ 0--| 6---------- 5 3------------ 3--|
G|------------ 2 1------------ 0--| 5---------- 3------ 2------ 2--|
D|---- 3 2------------ 3----------|---- 3------ 5------------------|
A|--------------------------------| 5------ 4---- 3-------- 2------|
E| 3------ 2---- 1------ 0--------|--------------------------------|
http://classicalguitartablature.blogspot.com/
E| 8------------------------------|--------------------------------|
B| 8------------------------------|--------------------------------|
G| 7------------------ 5------ 5 2|---- 2 1---- 0-------- 5--------|
D|---- 7------ 7---- 3------ 3-- 3|---- 2 0---- 2---------- 5------|
A|--------------------------------|--------------------------------|
E| 8------ 7------ 5------ 4---- 3|---- 2 1---- 0---------- 0------|
http://classicalguitartablature.blogspot.com/
0 com

'Deed I Do (Intermediate)

Jazz tune fingerstyle chord melody guitar intermediate arrangement played in the key of D.
'Deed I Do played in the key of D.
http://classicalguitartablature.blogspot.com/
E| 2-- 5--------------------------|-------------- 0----------------|
B| 3-- 5--------------------------| 3------------ 3-------------- 3|
G| 2-- 4------ 4------ 4------ 4--| 1---------- 1 4-------------- 2|
D|--------------------------------|---- 0------ 3------ 5------ 5--|
A|---------------- 5------ 4------| 2------ 1---- 0----------------|
E| 2------ 0----------------------|---------------------- 3------ 2|
http://classicalguitartablature.blogspot.com/
E|--------------------------------|--------------------------------|
B|--------------------------------|--------------------------------|
G|-------------- 7----------------|---- 4------ 3------ 0------ 2--|
D|---- 0------ 0------ 6------ 6--|---- 5------ 5------ 4------ 5--|
A|---------------------- 5------ 4|-------- 3------ 2------ 4------|
E|------ 1------ 0----------------|--------------------------------|
http://classicalguitartablature.blogspot.com/
http://classicalguitartablature.blogspot.com/
E|----10--------------------------| 7-- 5--------------------------|
B|12--10--------------------------| 5-- 6--------------------------|
G|11-- 9-------------- 7------ 7--| 5-- 5-------------- 2------ 2--|
D|12---------- 9------ 7------ 5--|------------ 4------ 2------ 2--|
A|--------------------------------|--------------------------------|
E|10------ 9---- 7-------- 6------| 5------ 4------ 3------ 2------|
http://classicalguitartablature.blogspot.com/
E| 2-- 0--------------------------|--------------------------------|
B| 3-- 0--------------------------| 7-- 5--------------------------|
G| 4-- 2------------------ 5-- 4--| 7-- 7---------------------- 3--|
D|------------ 2------ 2-- 3-- 3--| 8-- 5------ 5------ 5------ 2--|
A|------------------------ 5-- 4--|--------------------------------|
E| 3------ 2------ 0--------------| 8------ 6------ 5------ 3------|
http://classicalguitartablature.blogspot.com/
E| 2-- 5--------------------------|-------------- 0----------------|
B| 3-- 5--------------------------| 3------------ 3-------------- 3|
G| 2-- 4------ 4------ 4------ 4--| 1---------- 1 4-------------- 2|
D|--------------------------------|---- 0------ 3------ 5------ 5--|
A|---------------- 5------ 4------| 2------ 1---- 0----------------|
E| 2------ 0----------------------|---------------------- 3------ 2|
http://classicalguitartablature.blogspot.com/
E|--------------------------------|--------------------------------|
B|--------------------------------|--------------------------------|
G|-------------- 7----------------|---- 4------ 3------ 0------ 2--|
D|---- 0------ 0------ 6------ 6--|---- 5------ 5------ 4------ 5--|
A|---------------------- 5------ 4|-------- 3------ 2------ 4------|
E|------ 1------ 0----------------|--------------------------------|
http://classicalguitartablature.blogspot.com/
E|----10--------------------------| 7-- 5--------------------------|
B|12--10--------------------------| 5-- 6--------------------------|
G|11-- 9-------------- 7------ 7--| 5-- 5-------------- 2------ 2--|
D|12---------- 9------ 7------ 5--|------------ 4------ 2------ 2--|
A|--------------------------------|--------------------------------|
E|10------ 9---- 7-------- 6------| 5------ 4------ 3------ 2------|
http://classicalguitartablature.blogspot.com/
E| 2-- 0--------------------------|--------------------------------|
B| 3-- 0--------------------------| 7-- 5--------------------------|
G| 4-- 2------------------ 5-- 4--| 7-- 7---------------------- 3--|
D|------------ 2------ 2-- 3-- 3--| 8-- 5------ 5------ 5------ 2--|
A|------------------------ 5-- 4--|--------------------------------|
E| 3------ 2------ 0--------------| 8------ 6------ 5------ 3------|
http://classicalguitartablature.blogspot.com/
E| 2-- 5--------------------------|-------------- 0----------------|
B| 3-- 5--------------------------| 3------------ 3----------------|
G| 2-- 4------ 4------ 4------ 4--| 1---------- 1 4----------------|
D|--------------------------------|---- 0------ 3------ 5------ 5--|
A|---------------- 5------ 4------| 2------ 1---- 0----------------|
E| 2------ 0----------------------|---------------------- 3--------|
http://classicalguitartablature.blogspot.com/
E|--------------------------------|--------------------------------|
B| 3------------------------------|--------------------------------|
G| 2------------------ 4----------|---- 2------ 1------ 5------ 5--|
D|---- 0------ 0------ 3------ 3--|---- 2------ 0---- 5------ 4----|
A|-------------- 5------ 4------ 3|-------- 2----------------------|
E| 2------ 0----------------------|-------------- 5------ 4------ 3|
http://classicalguitartablature.blogspot.com/
E|------ 7------ 9------10------12|------10-------- 7------ 3---- 2|
B|------10------ 8------12------12|------ 8-------- 8------ 3------|
G|---- 4 7------ 7------------12--|----12 7------------ 7-- 4------|
D|---- 4------ 7------ 9----------|------------ 9-------------- 4--|
A|-------- 9---- 7----------------|--------------------------------|
E|----------------------10------ 9|------ 7------ 5-------- 3------|
http://classicalguitartablature.blogspot.com/
E|--------------------------------|--------------------------------|
B| 2------------------------------|--------------------------------|
G| 3------------------ 4----------|---- 0-------- 4------------ 3 2|
D|---- 2------ 2------ 4------ 5--|---- 2------ 2------ 4------ 2--|
A|-------------- 5-------- 4---- 2|------ 1------------------------|
E| 2------ 0----------------------|-------------- 4-------- 3------|
http://classicalguitartablature.blogspot.com/
E|---------------------- 7------ 9|------ 7------ 5------ 2--------|
B|------ 7------10------10------ 7|------ 4------ 5------ 4--------|
G|------ 6------11------ 9------ 8|------ 4------------ 4 2--------|
D|---- 1------ 7------ 9------ 7--|---- 7------ 4-------------- 4--|
A|--------------------------------|--------------------------------|
E| 2------ 0----11------ 9------ 7|-------- 5------ 3------ 2------|
http://classicalguitartablature.blogspot.com/
E|--------------------------------| 5------------------------------|
B| 5------------------------------| 3------------------------------|
G| 7------------------ 3------ 1--| 4------------------ 2------ 0--|
D|---- 6------ 6------ 2------ 0--|---- 5------ 5------ 2------ 2--|
A|-------- 5------ 4------ 2------|--------------------------------|
E| 0------------------------------| 5------ 3---- 2-------- 0------|
http://classicalguitartablature.blogspot.com/
E|----10--------------------------| 7-- 5--------------------------|
B|12--10--------------------------| 5-- 6--------------------------|
G|11-- 9-------------- 7------ 7--| 5-- 5-------------- 2------ 2--|
D|12---------- 9------ 7------ 5--|------------ 4------ 2------ 2--|
A|--------------------------------|--------------------------------|
E|10------ 9---- 7-------- 6------| 5------ 4------ 3------ 2------|
http://classicalguitartablature.blogspot.com/
E| 2-- 0--------------------------|--------------------------------|
B| 3-- 0--------------------------| 7-- 5--------------------------|
G| 4-- 2------------------ 5-- 4--| 7-- 7---------------------- 3--|
D|------------ 2------ 2-- 3-- 3--| 8-- 5------ 5------ 5------ 2--|
A|------------------------ 5-- 4--|--------------------------------|
E| 3------ 2------ 0--------------| 8------ 6------ 5------ 3------|
http://classicalguitartablature.blogspot.com/
E| 2-- 5--------------------------|-------------- 0----------------|
B| 3-- 5--------------------------| 3------------ 3-------------- 3|
G| 2-- 4------ 4------ 4------ 4--| 1---------- 1 4-------------- 2|
D|--------------------------------|---- 0------ 3------ 5------ 5--|
A|---------------- 5------ 4------| 2------ 1---- 0----------------|
E| 2------ 0----------------------|---------------------- 3------ 2|
http://classicalguitartablature.blogspot.com/
E|--------------------------------|--------------------------------|
B|--------------------------------|--------------------------------|
G|-------------- 2----------------| 7-------------- 4---------- 3--|
D|---- 0------ 0------ 4------ 2--|---- 7------ 7------ 4------ 2--|
A|-------------- 5------ 4--------|--------------------------------|
E|------ 0------------------------| 7------ 5------ 4------ 3------|
http://classicalguitartablature.blogspot.com/
E| 2-- 5--------------------------|-------------- 0----------------|
B| 3-- 5--------------------------| 3------------ 3-------------- 3|
G| 2-- 4------ 4------ 4------ 4--| 1---------- 1 4-------------- 2|
D|--------------------------------|---- 0------ 3------ 5------ 5--|
A|---------------- 5------ 4------| 2------ 1---- 0----------------|
E| 2------ 0----------------------|---------------------- 3------ 2|
http://classicalguitartablature.blogspot.com/
E|--------------------------------|--------------------------------|
B|--------------------------------|--------------------------------|
G|-------------- 2----------------| 7-------------- 4---------- 3--|
D|---- 0------ 0------ 4------ 2--|---- 7------ 7------ 4------ 2--|
A|-------------- 5------ 4--------|--------------------------------|
E|------ 0------------------------| 7------ 5------ 4------ 3------|
http://classicalguitartablature.blogspot.com/
E| 2-- 5--------------------------|-------------- 0----------------|
B| 3-- 5--------------------------| 3------------ 3-------------- 3|
G| 2-- 4------ 4------ 4------ 4--| 1---------- 1 4-------------- 2|
D|--------------------------------|---- 0------ 3------ 5------ 5--|
A|---------------- 5------ 4------| 2------ 1---- 0----------------|
E| 2------ 0----------------------|---------------------- 3------ 2|
http://classicalguitartablature.blogspot.com/
E|--------------------------------|--------------------------------|
B|--------------------------------| 3------------------------------|
G|-------------- 0----------------| 2------------------------------|
D|---- 2-------------- 2----------| 2------------------------------|
A|--------------------------------| 5------------------------------|
E|---------------- 0--------------|--------------------------------|
http://classicalguitartablature.blogspot.com/