To celebrate the anniversary, I am giving you (finally...) : iPhone LickByNeck !!!!!!

Comes Love

Jazz standards fingerstyle chord melody guitar arrangment played in the key of Gm.
Comes Love played in the key of Gm.
http://classicalguitartablature.blogspot.com/
E|---- 8------ 8 6----------------|--------------------------------|
B| 3-- 6-------- 6------10------ 8|-------------- 3----------------|
G| 3-- 6------ 6 5------ 7------ 7|------------ 5 3------------ 2--|
D| 5------------------ 4------ 7--|---- 5------ 7------ 2------ 1--|
A|------ 6-------- 5--------------|--------------------------------|
E| 0-------------------- 8------ 6|------ 5------ 3-------- 2------|
http://classicalguitartablature.blogspot.com/
E|--------------------------------| 3------ 6-------------------- 3|
B|------------------------ 3-- 3--| 3------ 4-------------- 3-- 3 3|
G| 3------ 2---------- 3-- 2-- 2--| 3------ 2---- 3-------- 3-- 3--|
D|---- 2------ 4------ 5-- 1-- 1--|---- 3------ 4------ 3-- 2-- 2--|
A|-------- 6------ 7--------------|--------------------------------|
E| 0---------------------- 2------| 3------ 2------ 1------ 0------|
http://classicalguitartablature.blogspot.com/
http://classicalguitartablature.blogspot.com/
E|---- 3 6---- 6 3----------------|-------- 5----------------------|
B|---- 3 5---- 5 3------ 3------ 7|-------- 4-------------- 3-- 3--|
G| 3-- 3 3---- 3 1-- 1-- 0-- 0-- 5|-------- 5---- 2-------- 3------|
D|---------------------- 3--------|---- 7------ 5------ 0-- 2------|
A| 5---- 4------ 2------ 1--------|--------------------------------|
E|------------------------------ 5|-------- 3---- 2-------- 0------|
http://classicalguitartablature.blogspot.com/
E|-------- 5-- 5-- 2------------10|--------------------------------|
B| 7-- 7-- 7-- 7-- 3---- 3------10|--------------------------------|
G| 5-- 5-- 5-- 5-- 2-- 2 0------11|------------11-- 8---------- 7 7|
D| 7-- 7---------------- 3---- 3--|----10------10------10------10 8|
A| 6------ 5------ 3------ 1------|12------11------10------ 9------|
E|--------------------------------|--------------------------------|
http://classicalguitartablature.blogspot.com/
E|---- 8------ 8 6----------------|--------------------------------|
B|---- 6-------- 6------10------ 8|-------------- 3----------------|
G|---- 6------ 6 5------ 7------ 7|------------ 5 3------------ 2--|
D|-------------------- 4------ 7--|---- 5------ 7------ 2------ 1--|
A| 7---- 6-------- 5--------------|--------------------------------|
E|---------------------- 8------ 6|------ 5------ 3-------- 2------|
http://classicalguitartablature.blogspot.com/
E|--------------------------------| 3------ 6-------------------- 3|
B|------------------------ 3-- 3--| 3------ 4-------------- 3-- 3 3|
G| 3------ 2---------- 3-- 2-- 2--| 3------ 2---- 3-------- 3-- 3--|
D|---- 2------ 4------ 5-- 1-- 1--|---- 3------ 4------ 3-- 2-- 2--|
A|-------- 6------ 7--------------|--------------------------------|
E| 0---------------------- 2------| 3------ 2------ 1------ 0------|
http://classicalguitartablature.blogspot.com/
E|---- 3 6---- 6 3----------------|-------- 5----------------------|
B|---- 3 5---- 5 3------ 3------ 7|-------- 4-------------- 3-- 3--|
G| 3-- 3 3---- 3 1-- 1-- 0-- 0-- 5|-------- 5---- 2-------- 3------|
D|---------------------- 3--------|---- 7------ 5------ 0-- 2------|
A| 5---- 4------ 2------ 1--------|--------------------------------|
E|------------------------------ 5|-------- 3---- 2-------- 0------|
http://classicalguitartablature.blogspot.com/
E|-------- 5-- 5-- 2------------10|--------------------------------|
B| 7-- 7-- 7-- 7-- 3---- 3------10|--------------------------------|
G| 5-- 5-- 5-- 5-- 2-- 2 0------11|------------11-- 8---------- 7 7|
D| 7-- 7---------------- 3---- 3--|----10------10------10------10 8|
A| 6------ 5------ 3------ 1------|12------11------10------ 9------|
E|--------------------------------|--------------------------------|
http://classicalguitartablature.blogspot.com/
E|---- 8------ 8 6----------------|--------------------------------|
B|---- 6-------- 6------10------ 8|-------------- 3----------------|
G|---- 6------ 6 5------ 7------ 7|------------ 5 3------------ 2--|
D|-------------------- 4------ 7--|---- 5------ 7------ 2------ 1--|
A| 7---- 6-------- 5--------------|--------------------------------|
E|---------------------- 8------ 6|------ 5------ 3-------- 2------|
http://classicalguitartablature.blogspot.com/
E|--------------------------------|10---------- 7----------------10|
B|--------------------------------|12---------- 6----------------12|
G| 3------ 2---------- 3-- 2------|10---------- 7------ 7 7--------|
D|---- 2------ 4------ 5------ 0--|----12---------------------- 7--|
A|-------- 6------ 7--------------|10------------------------------|
E| 0---------------------- 2------|-------- 5------ 7---- 8--------|
http://classicalguitartablature.blogspot.com/
E|------------ 7------11------1011|------10------ 8----------------|
B|------------ 8------11------13 8|------ 9-------- 8----12----13--|
G|10---------- 7------10------10--|---- 8 7-------- 8------10--12--|
D|----12--------------------------|------------ 9------ 8--12--10--|
A|------ 8------10------12--------|--------------------------------|
E|10------------------------------| 6------ 7------ 8------10------|
http://classicalguitartablature.blogspot.com/
E|------------------------------ 8|------------------------------ 8|
B|------------------------------ 6|------------10---------------- 8|
G|----12 0-------- 3-- 3------ 4 5|------------10--------10------ 5|
D|----10------ 0-- 1-- 1 3---- 3--|---- 7------10------10------ 9--|
A|--------------------------------|--------------------------------|
E|11---- 1-------- 3------ 4---- 5|-------- 6------ 8----10--------|
http://classicalguitartablature.blogspot.com/
E|--------------------------------|10--10------10------10------10--|
B|------------10------------------|10-- 8------ 9------ 9------10--|
G|------------ 7------ 7 8--------|11-- 7------ 7------10------11--|
D|---- 7------ 8------ 7------10--|10------------------ 9------10--|
A| 6---- 7------ 9--------10------| 0------------------------------|
E|--------------------------------|-------- 6---- 7------ 9------10|
http://classicalguitartablature.blogspot.com/
E|--------------------------------| 3------ 6-------------------- 3|
B|---- 3---- 3---------- 3---- 3--| 3------ 4-------------- 3-- 3 3|
G|---- 5---- 3------ 3-- 2---- 2--| 3------ 2---- 3-------- 3-- 3--|
D|---- 7------ 5---- 5---- 1-- 1--|---- 3------ 4------ 3-- 2-- 2--|
A|------ 6------------------------|--------------------------------|
E|-------------- 0-------- 2------| 3------ 2------ 1------ 0------|
http://classicalguitartablature.blogspot.com/
E|---- 3 6---- 6 3----------------|-------- 5----------------------|
B|---- 3 5---- 5 3------ 3------ 7|-------- 4-------------- 3-- 3--|
G| 3-- 3 3---- 3 1-- 1-- 0-- 0-- 5|-------- 5---- 2-------- 3------|
D|---------------------- 3--------|---- 7------ 5------ 0-- 2------|
A| 5---- 4------ 2------ 1--------|--------------------------------|
E|------------------------------ 5|-------- 3---- 2-------- 0------|
http://classicalguitartablature.blogspot.com/
E|-------- 5-- 5-- 2------------10|--------------------------------|
B| 7-- 7-- 7-- 7-- 3---- 3------10|--------------------------------|
G| 5-- 5-- 5-- 5-- 2-- 2 0------11|------------11-- 8---------- 7 7|
D| 7-- 7---------------- 3---- 3--|----10------10------10------10 8|
A| 6------ 5------ 3------ 1------|12------11------10------ 9------|
E|--------------------------------|--------------------------------|
http://classicalguitartablature.blogspot.com/
E|---- 8------ 8 6----------------|--------------------------------|
B|---- 6-------- 6------10------ 8|-------------- 3----------------|
G|---- 6------ 6 5------ 7------ 7|------------ 5 3------------ 2 7|
D|-------------------- 4------ 7--|---- 5------ 7------ 2------ 1 8|
A| 7---- 6-------- 5--------------|--------------------------------|
E|---------------------- 8------ 6|------ 5------ 3-------- 2------|
http://classicalguitartablature.blogspot.com/
E|---- 8------ 8 6----------------|--------------------------------|
B|---- 6-------- 6------10------ 8|-------------- 3----------------|
G|---- 6------ 6 5------ 7------ 7|------------ 5 3------------ 2 7|
D|-------------------- 4------ 7--|---- 5------ 7------ 2------ 1 8|
A| 7---- 6-------- 5--------------|--------------------------------|
E|---------------------- 8------ 6|------ 5------ 3-------- 2------|
http://classicalguitartablature.blogspot.com/
E|---- 8------ 8 6----------------|--------------------------------|
B|---- 6-------- 6------10------ 8|-------------- 3----------------|
G|---- 6------ 6 5------ 7------ 7|------------ 5 3------------ 2--|
D|-------------------- 4------ 7--|---- 5------ 7------ 2------ 1--|
A| 7---- 6-------- 5--------------|--------------------------------|
E|---------------------- 8------ 6|------ 5------ 3-------- 2------|
http://classicalguitartablature.blogspot.com/
E|------------------------------ 3|---- 6--------------------------|
B|------------------------ 3-- 3--| 6-- 5--------------------------|
G| 3------ 2---------- 3-- 2-- 2--| 5-- 3--------------------------|
D|---- 2------ 4------ 5-- 1-- 1--| 3------------------------------|
A|-------- 6------ 7--------------|--------------------------------|
E| 0---------------------- 2------| 4-- 3--------------------------|
http://classicalguitartablature.blogspot.com/

0 ความคิดเห็น:

แสดงความคิดเห็น