To celebrate the anniversary, I am giving you (finally...) : iPhone LickByNeck !!!!!!

'Deed I Do (Intermediate)

Jazz tune fingerstyle chord melody guitar intermediate arrangement played in the key of D.
'Deed I Do played in the key of D.
http://classicalguitartablature.blogspot.com/
E| 2-- 5--------------------------|-------------- 0----------------|
B| 3-- 5--------------------------| 3------------ 3-------------- 3|
G| 2-- 4------ 4------ 4------ 4--| 1---------- 1 4-------------- 2|
D|--------------------------------|---- 0------ 3------ 5------ 5--|
A|---------------- 5------ 4------| 2------ 1---- 0----------------|
E| 2------ 0----------------------|---------------------- 3------ 2|
http://classicalguitartablature.blogspot.com/
E|--------------------------------|--------------------------------|
B|--------------------------------|--------------------------------|
G|-------------- 7----------------|---- 4------ 3------ 0------ 2--|
D|---- 0------ 0------ 6------ 6--|---- 5------ 5------ 4------ 5--|
A|---------------------- 5------ 4|-------- 3------ 2------ 4------|
E|------ 1------ 0----------------|--------------------------------|
http://classicalguitartablature.blogspot.com/
http://classicalguitartablature.blogspot.com/
E|----10--------------------------| 7-- 5--------------------------|
B|12--10--------------------------| 5-- 6--------------------------|
G|11-- 9-------------- 7------ 7--| 5-- 5-------------- 2------ 2--|
D|12---------- 9------ 7------ 5--|------------ 4------ 2------ 2--|
A|--------------------------------|--------------------------------|
E|10------ 9---- 7-------- 6------| 5------ 4------ 3------ 2------|
http://classicalguitartablature.blogspot.com/
E| 2-- 0--------------------------|--------------------------------|
B| 3-- 0--------------------------| 7-- 5--------------------------|
G| 4-- 2------------------ 5-- 4--| 7-- 7---------------------- 3--|
D|------------ 2------ 2-- 3-- 3--| 8-- 5------ 5------ 5------ 2--|
A|------------------------ 5-- 4--|--------------------------------|
E| 3------ 2------ 0--------------| 8------ 6------ 5------ 3------|
http://classicalguitartablature.blogspot.com/
E| 2-- 5--------------------------|-------------- 0----------------|
B| 3-- 5--------------------------| 3------------ 3-------------- 3|
G| 2-- 4------ 4------ 4------ 4--| 1---------- 1 4-------------- 2|
D|--------------------------------|---- 0------ 3------ 5------ 5--|
A|---------------- 5------ 4------| 2------ 1---- 0----------------|
E| 2------ 0----------------------|---------------------- 3------ 2|
http://classicalguitartablature.blogspot.com/
E|--------------------------------|--------------------------------|
B|--------------------------------|--------------------------------|
G|-------------- 7----------------|---- 4------ 3------ 0------ 2--|
D|---- 0------ 0------ 6------ 6--|---- 5------ 5------ 4------ 5--|
A|---------------------- 5------ 4|-------- 3------ 2------ 4------|
E|------ 1------ 0----------------|--------------------------------|
http://classicalguitartablature.blogspot.com/
E|----10--------------------------| 7-- 5--------------------------|
B|12--10--------------------------| 5-- 6--------------------------|
G|11-- 9-------------- 7------ 7--| 5-- 5-------------- 2------ 2--|
D|12---------- 9------ 7------ 5--|------------ 4------ 2------ 2--|
A|--------------------------------|--------------------------------|
E|10------ 9---- 7-------- 6------| 5------ 4------ 3------ 2------|
http://classicalguitartablature.blogspot.com/
E| 2-- 0--------------------------|--------------------------------|
B| 3-- 0--------------------------| 7-- 5--------------------------|
G| 4-- 2------------------ 5-- 4--| 7-- 7---------------------- 3--|
D|------------ 2------ 2-- 3-- 3--| 8-- 5------ 5------ 5------ 2--|
A|------------------------ 5-- 4--|--------------------------------|
E| 3------ 2------ 0--------------| 8------ 6------ 5------ 3------|
http://classicalguitartablature.blogspot.com/
E| 2-- 5--------------------------|-------------- 0----------------|
B| 3-- 5--------------------------| 3------------ 3----------------|
G| 2-- 4------ 4------ 4------ 4--| 1---------- 1 4----------------|
D|--------------------------------|---- 0------ 3------ 5------ 5--|
A|---------------- 5------ 4------| 2------ 1---- 0----------------|
E| 2------ 0----------------------|---------------------- 3--------|
http://classicalguitartablature.blogspot.com/
E|--------------------------------|--------------------------------|
B| 3------------------------------|--------------------------------|
G| 2------------------ 4----------|---- 2------ 1------ 5------ 5--|
D|---- 0------ 0------ 3------ 3--|---- 2------ 0---- 5------ 4----|
A|-------------- 5------ 4------ 3|-------- 2----------------------|
E| 2------ 0----------------------|-------------- 5------ 4------ 3|
http://classicalguitartablature.blogspot.com/
E|------ 7------ 9------10------12|------10-------- 7------ 3---- 2|
B|------10------ 8------12------12|------ 8-------- 8------ 3------|
G|---- 4 7------ 7------------12--|----12 7------------ 7-- 4------|
D|---- 4------ 7------ 9----------|------------ 9-------------- 4--|
A|-------- 9---- 7----------------|--------------------------------|
E|----------------------10------ 9|------ 7------ 5-------- 3------|
http://classicalguitartablature.blogspot.com/
E|--------------------------------|--------------------------------|
B| 2------------------------------|--------------------------------|
G| 3------------------ 4----------|---- 0-------- 4------------ 3 2|
D|---- 2------ 2------ 4------ 5--|---- 2------ 2------ 4------ 2--|
A|-------------- 5-------- 4---- 2|------ 1------------------------|
E| 2------ 0----------------------|-------------- 4-------- 3------|
http://classicalguitartablature.blogspot.com/
E|---------------------- 7------ 9|------ 7------ 5------ 2--------|
B|------ 7------10------10------ 7|------ 4------ 5------ 4--------|
G|------ 6------11------ 9------ 8|------ 4------------ 4 2--------|
D|---- 1------ 7------ 9------ 7--|---- 7------ 4-------------- 4--|
A|--------------------------------|--------------------------------|
E| 2------ 0----11------ 9------ 7|-------- 5------ 3------ 2------|
http://classicalguitartablature.blogspot.com/
E|--------------------------------| 5------------------------------|
B| 5------------------------------| 3------------------------------|
G| 7------------------ 3------ 1--| 4------------------ 2------ 0--|
D|---- 6------ 6------ 2------ 0--|---- 5------ 5------ 2------ 2--|
A|-------- 5------ 4------ 2------|--------------------------------|
E| 0------------------------------| 5------ 3---- 2-------- 0------|
http://classicalguitartablature.blogspot.com/
E|----10--------------------------| 7-- 5--------------------------|
B|12--10--------------------------| 5-- 6--------------------------|
G|11-- 9-------------- 7------ 7--| 5-- 5-------------- 2------ 2--|
D|12---------- 9------ 7------ 5--|------------ 4------ 2------ 2--|
A|--------------------------------|--------------------------------|
E|10------ 9---- 7-------- 6------| 5------ 4------ 3------ 2------|
http://classicalguitartablature.blogspot.com/
E| 2-- 0--------------------------|--------------------------------|
B| 3-- 0--------------------------| 7-- 5--------------------------|
G| 4-- 2------------------ 5-- 4--| 7-- 7---------------------- 3--|
D|------------ 2------ 2-- 3-- 3--| 8-- 5------ 5------ 5------ 2--|
A|------------------------ 5-- 4--|--------------------------------|
E| 3------ 2------ 0--------------| 8------ 6------ 5------ 3------|
http://classicalguitartablature.blogspot.com/
E| 2-- 5--------------------------|-------------- 0----------------|
B| 3-- 5--------------------------| 3------------ 3-------------- 3|
G| 2-- 4------ 4------ 4------ 4--| 1---------- 1 4-------------- 2|
D|--------------------------------|---- 0------ 3------ 5------ 5--|
A|---------------- 5------ 4------| 2------ 1---- 0----------------|
E| 2------ 0----------------------|---------------------- 3------ 2|
http://classicalguitartablature.blogspot.com/
E|--------------------------------|--------------------------------|
B|--------------------------------|--------------------------------|
G|-------------- 2----------------| 7-------------- 4---------- 3--|
D|---- 0------ 0------ 4------ 2--|---- 7------ 7------ 4------ 2--|
A|-------------- 5------ 4--------|--------------------------------|
E|------ 0------------------------| 7------ 5------ 4------ 3------|
http://classicalguitartablature.blogspot.com/
E| 2-- 5--------------------------|-------------- 0----------------|
B| 3-- 5--------------------------| 3------------ 3-------------- 3|
G| 2-- 4------ 4------ 4------ 4--| 1---------- 1 4-------------- 2|
D|--------------------------------|---- 0------ 3------ 5------ 5--|
A|---------------- 5------ 4------| 2------ 1---- 0----------------|
E| 2------ 0----------------------|---------------------- 3------ 2|
http://classicalguitartablature.blogspot.com/
E|--------------------------------|--------------------------------|
B|--------------------------------|--------------------------------|
G|-------------- 2----------------| 7-------------- 4---------- 3--|
D|---- 0------ 0------ 4------ 2--|---- 7------ 7------ 4------ 2--|
A|-------------- 5------ 4--------|--------------------------------|
E|------ 0------------------------| 7------ 5------ 4------ 3------|
http://classicalguitartablature.blogspot.com/
E| 2-- 5--------------------------|-------------- 0----------------|
B| 3-- 5--------------------------| 3------------ 3-------------- 3|
G| 2-- 4------ 4------ 4------ 4--| 1---------- 1 4-------------- 2|
D|--------------------------------|---- 0------ 3------ 5------ 5--|
A|---------------- 5------ 4------| 2------ 1---- 0----------------|
E| 2------ 0----------------------|---------------------- 3------ 2|
http://classicalguitartablature.blogspot.com/
E|--------------------------------|--------------------------------|
B|--------------------------------| 3------------------------------|
G|-------------- 0----------------| 2------------------------------|
D|---- 2-------------- 2----------| 2------------------------------|
A|--------------------------------| 5------------------------------|
E|---------------- 0--------------|--------------------------------|
http://classicalguitartablature.blogspot.com/

0 ความคิดเห็น:

แสดงความคิดเห็น