To celebrate the anniversary, I am giving you (finally...) : iPhone LickByNeck !!!!!!

I Can't Believe That You Are In Love With Me (Intermediate)

Jazz standards fingerstyle chord melody guitar intermediate arrangement played in the key of C.
I Can't Believe That You're In Love With Me played in the key of C.
http://classicalguitartablature.blogspot.com/
E| 3---------- 0-------------- 0--| 3------------ 3------------ 5--|
B| 6---------- 1 3------------ 0--| 6---------- 5 3------------ 3--|
G| 4---------- 2 1------------ 0--| 5---------- 3------ 2------ 2--|
D|---- 3 2------------ 3----------|---- 3------ 5------------------|
A|--------------------------------| 5------ 4---- 3-------- 2------|
E| 3------ 2---- 1------ 0--------|--------------------------------|
http://classicalguitartablature.blogspot.com/
E| 8------------------------------|---------------------------- 810|
B| 8------------------------------|---------------------------- 9--|
G| 7------------------ 5------ 5--| 2---------- 2------ 2------ 9--|
D|---- 7------ 7---- 3------ 3----|---- 2------ 2---- 0------------|
A|--------------------------------|--------------------------------|
E| 8------ 7------ 5------ 4------| 3------ 2---- 1-------- 0------|
http://classicalguitartablature.blogspot.com/
http://classicalguitartablature.blogspot.com/
E|------------ 8-------------- 8--|10---------- 8-------------- 810|
B|10---------- 8--10----------11--| 9---------- 6 9------------ 6 8|
G|---- 9------ 7--10----------10--|----10------ 7 7------------ 5--|
D|--------------------10----------|-------------------- 6----------|
A| 8------ 7----------------------|------------------------------10|
E|----------------10---- 9--------| 8------ 7---- 6------ 4--------|
http://classicalguitartablature.blogspot.com/
E|------------ 8 5------------1210|------------ 8-- 5--------------|
B|------------10 8------------1313|------------ 7-- 8------ 5------|
G|---- 9------ 9 5------------1211|------------ 7-- 7------ 5------|
D|-------------------- 5----------|----10 7------------ 5------ 4--|
A|------ 9-------- 7--------------|--------------------------------|
E|------------------------11----10|-------- 8------ 7------ 5------|
http://classicalguitartablature.blogspot.com/
E| 3---------- 0-------------- 0--| 3---------------------------- 3|
B| 6---------- 1 3------------ 0--| 6---------- 5-- 3---------- 5 3|
G| 4---------- 2 1------------ 0--| 5---------- 3-- 2---------- 2--|
D|---- 3 2------------ 3----------|---- 3------ 5------ 3------ 3--|
A|--------------------------------| 5------ 4------ 3------ 2------|
E| 3------ 2---- 1------ 0--------|--------------------------------|
http://classicalguitartablature.blogspot.com/
E|--------------------------------|------------------------------10|
B|--------------------------------|--------------------------------|
G| 2---------------------------- 2|------------ 0------ 3------ 5--|
D|---- 2------ 2------ 2------ 2--|---- 0------ 2------ 3------ 8--|
A| 3------ 2---- 0----------------|-------------- 5------ 7--------|
E|---------------------- 3--------| 1------ 0----------------------|
http://classicalguitartablature.blogspot.com/
E|------------ 8-------------- 8--|10---------- 8-------------- 810|
B|10---------- 8--10----------11--| 9---------- 6 9------------ 6 8|
G|---- 9------ 7--10----------10--|----10------ 7 7------------ 5--|
D|--------------------10----------|-------------------- 6----------|
A| 8------ 7----------------------|------------------------------10|
E|----------------10---- 9--------| 8------ 7---- 6------ 4--------|
http://classicalguitartablature.blogspot.com/
E|------------ 8 5------------1210|------------ 8-- 5--------------|
B|------------10 8------------1313|------------ 7-- 8------ 5------|
G|---- 9------ 9 5------------1211|------------ 7-- 7------ 5------|
D|-------------------- 5----------|----10 7------------ 5------ 4--|
A|------ 9-------- 7--------------|--------------------------------|
E|------------------------11----10|-------- 8------ 7------ 5------|
http://classicalguitartablature.blogspot.com/
E| 3---------- 0-------------- 0--| 3------------ 3------------ 5--|
B| 6---------- 1 3------------ 0--| 6---------- 5 3------------ 3--|
G| 4---------- 2 1------------ 0--| 5---------- 3------ 2------ 2--|
D|---- 3 2------------ 3----------|---- 3------ 5------------------|
A|--------------------------------| 5------ 4---- 3-------- 2------|
E| 3------ 2---- 1------ 0--------|--------------------------------|
http://classicalguitartablature.blogspot.com/
E| 8------------------------------|------------------------------12|
B| 8------------------------------|------------------------------12|
G| 7------------------ 5------ 5--| 2---------- 2------ 2------ 6--|
D|---- 7------ 7---- 3------ 3----|---- 2------ 2------ 1------ 5--|
A|--------------------------------|---------------------- 6--------|
E| 8------ 7------ 5------ 4------| 3------ 2---- 1----------------|
http://classicalguitartablature.blogspot.com/
E|-------------- 7------------ 912|------------ 9 7-------------- 7|
B|------------1410------------10 7|------------ 8 7------------ 5--|
G|13----------13 9------------ 9 7|------------ 6 7------------ 4--|
D|----12------12------ 7----------|---- 7-------------- 7------ 3--|
A|--------------------------------|--------------------------------|
E| 0------10------ 9---- 8--------| 7---- 6-------- 5---- 4--------|
http://classicalguitartablature.blogspot.com/
E|------------------------------ 5|------------------------------10|
B| 7------------------------------| 5----------------------------13|
G| 6-------------- 2---------- 2--| 6---------- 7------ 9------ 911|
D|---- 5------ 5------ 0------ 2--|---- 5------ 5---- 7------ 7----|
A| 0------------------------------|--------------------------------|
E|-------- 3------ 2------ 3------| 5------ 7---- 8------ 9------10|
http://classicalguitartablature.blogspot.com/
E|---------------- 5---------- 7--|10---------- 7-- 5------------ 5|
B|------------12-- 8---------- 8--| 8---------- 6-- 5---------- 3 3|
G|------------11-- 7---------- 7--| 9---------- 4-- 5---------- 2 4|
D|----10------10-------- 5--------|---- 7-------------- 5------ 1--|
A|--------------------------------| 0------------------------------|
E|-------- 8------ 7---- 6--------|-------- 4------ 3---- 2------ 3|
http://classicalguitartablature.blogspot.com/
E|------------------------------ 3|---------------------------- 810|
B|------------------------------ 3|---------------------------- 9--|
G|-------------------- 7------ 7 3|---- 3-- 5-- 5------ 5------ 9--|
D|---- 3------ 3---- 5---- 5------|------------ 3------ 5----------|
A|------------------------------ 3|-------- 5---- 6-------- 7------|
E|-------- 5---- 6------ 7--------|--------------------------------|
http://classicalguitartablature.blogspot.com/
E|------------ 8-------------- 8--|10---------- 8-------------- 810|
B|10---------- 8--10----------11--| 9---------- 6 9------------ 6 8|
G|---- 9------ 7--10----------10--|----10------ 7 7------------ 5--|
D|--------------------10----------|-------------------- 6----------|
A| 8------ 7----------------------|------------------------------10|
E|----------------10---- 9--------| 8------ 7---- 6------ 4--------|
http://classicalguitartablature.blogspot.com/
E|------------ 8 5------------1210|------------ 8-- 5--------------|
B|------------10 8------------1313|------------ 7-- 8------ 5------|
G|---- 9------ 9 5------------1211|------------ 7-- 7------ 5------|
D|-------------------- 5----------|----10 7------------ 5------ 4--|
A|------ 9-------- 7--------------|--------------------------------|
E|------------------------11----10|-------- 8------ 7------ 5------|
http://classicalguitartablature.blogspot.com/
E| 3---------- 0-------------- 0--| 3------------ 3------------ 5--|
B| 6---------- 1 3------------ 0--| 6---------- 5 3------------ 3--|
G| 4---------- 2 1------------ 0--| 5---------- 3------ 2------ 2--|
D|---- 3 2------------ 3----------|---- 3------ 5------------------|
A|--------------------------------| 5------ 4---- 3-------- 2------|
E| 3------ 2---- 1------ 0--------|--------------------------------|
http://classicalguitartablature.blogspot.com/
E| 8------------------------------|------------------------------ 3|
B| 8------------------------------|---------------------------- 5 6|
G| 7------------------ 5------ 5--| 2---------- 2------ 2------ 2 4|
D|---- 7------ 7---- 3------ 3----|---- 2------ 2---- 0-------- 4--|
A|--------------------------------|--------------------------------|
E| 8------ 7------ 5------ 4------| 3------ 2---- 1------ 2--------|
http://classicalguitartablature.blogspot.com/
E|------------ 0-------------- 0--| 3------------ 3------------ 5--|
B|------------ 1 3------------ 0--| 6---------- 5 3------------ 3--|
G|------------ 2 1------------ 0--| 5---------- 3------ 2------ 2--|
D|---- 3 2------------ 3----------|---- 3------ 5------------------|
A|--------------------------------| 5------ 4---- 3-------- 2------|
E| 3------ 2---- 1------ 0--------|--------------------------------|
http://classicalguitartablature.blogspot.com/
E| 8------------------------------|------------------------------ 3|
B| 8------------------------------|---------------------------- 5 6|
G| 7------------------ 5------ 5--| 2---------- 2------ 2------ 2 4|
D|---- 7------ 7---- 3------ 3----|---- 2------ 2---- 0-------- 4--|
A|--------------------------------|--------------------------------|
E| 8------ 7------ 5------ 4------| 3------ 2---- 1------ 2--------|
http://classicalguitartablature.blogspot.com/
E|------------ 0-------------- 0--| 3------------ 3------------ 5--|
B|------------ 1 3------------ 0--| 6---------- 5 3------------ 3--|
G|------------ 2 1------------ 0--| 5---------- 3------ 2------ 2--|
D|---- 3 2------------ 3----------|---- 3------ 5------------------|
A|--------------------------------| 5------ 4---- 3-------- 2------|
E| 3------ 2---- 1------ 0--------|--------------------------------|
http://classicalguitartablature.blogspot.com/
E| 8------------------------------|--------------------------------|
B| 8------------------------------|--------------------------------|
G| 7------------------ 5------ 5 2|---- 2 1---- 0-------- 5--------|
D|---- 7------ 7---- 3------ 3-- 3|---- 2 0---- 2---------- 5------|
A|--------------------------------|--------------------------------|
E| 8------ 7------ 5------ 4---- 3|---- 2 1---- 0---------- 0------|
http://classicalguitartablature.blogspot.com/

0 ความคิดเห็น:

แสดงความคิดเห็น