To celebrate the anniversary, I am giving you (finally...) : iPhone LickByNeck !!!!!!

Lady Bird

Jazz standards fingerstyle solo guitar arrangement played in the key of C.
Lady Bird played in the key of C.
http://classicalguitartablature.blogspot.com/
E|--------------------------------|--------------------------------|
B|---- 3------ 3------ 3------ 3--|-- 1-------- 1---- 1------ 1----|
G|---- 2-------------- 3------ 3--|-- 1-------- 1---- 1-------- 1--|
D|---- 2-------------- 1------ 1--|-- 1---------------- 3----------|
A|--------------------------------|------------------------------ 7|
E| 3-------------- 3------------ 3|-------------- 3----------------|
http://classicalguitartablature.blogspot.com/
E|--------------------------------|---- 3------ 3------ 3------ 3--|
B|---- 8------ 8------ 8------ 8--|---- 4-------------- 6------ 6--|
G|---- 5------ 5------ 7---- 7----|---- 5------ 5------ 5------ 5--|
D|---- 9------ 9------ 8------ 8--|--------------------------------|
A|-------------- 6-------------- 5|-------------- 4----------------|
E|--------------------------------|--------------------------------|
http://classicalguitartablature.blogspot.com/
http://classicalguitartablature.blogspot.com/
E|--------------------------------| 3---------- 3---------- 3------|
B|---- 8-------- 8-------- 8------| 6---------------------- 2----11|
G|---- 7-------- 7-------- 6------| 5---------- 5 2-------- 0---- 8|
D|---- 7------ 7------ 6------ 5--|---- 3-------------- 2------ 210|
A|--------------------------------|--------------------------------|
E| 8---- 7-------- 6------ 5------| 4------ 3------ 2------ 0------|
http://classicalguitartablature.blogspot.com/
E|---------------- 4--------------|--------------------------------|
B|---------------- 6-- 1---- 4----| 8---------- 5------------------|
G|------ 5-------- 5-- 1---- 2----| 7---------- 3------ 3 1--------|
D|----10------ 6------ 1---- 4----|---- 6------ 3------ 3------ 0--|
A| 8------ 6------ 5---- 3---- 2--|--------------------------------|
E|--------------------------------| 6------ 4------ 3------ 1------|
http://classicalguitartablature.blogspot.com/
E|--------------------------------|--------------------------------|
B|---- 8-------- 8------ 8------ 8|------------ 8---------- 8------|
G|---- 5------ 610------10------ 7|------------ 7------ 7-- 7------|
D|---- 5------ 6------10 9---- 9--|---- 7------ 7------ 6------ 5--|
A| 7------ 6----------------------|--------------------------------|
E|----------------10------ 9---- 8|------ 7-------- 6------ 5------|
http://classicalguitartablature.blogspot.com/
E| 8------------ 6---------- 1-- 8|--------------------------------|
B| 6-------------- 6-- 2---- 0----| 6----------10------------------|
G| 6------ 3------ 6-- 3---- 1----| 6---------- 8------ 8 6---- 6 5|
D|---- 6------ 1------ 3----------|---- 6------ 8------ 7 6---- 5 5|
A|--------------------------------| 6------------------------------|
E| 4------ 3------ 2-- 1---- 0----|-------- 9------ 8-- 7 6---- 5 4|
http://classicalguitartablature.blogspot.com/
E|---- 6--------------------------| 6------ 5-- 4------------------|
B|---- 6--------10------ 9--------| 6------ 8-- 1------ 1----------|
G|---- 6------ 6 8------ 9--------| 5------ 5-- 1------ 1-- 2------|
D|------------ 6------10------ 8--|---- 6-------------- 1------ 1--|
A|--------------------------------| 5------ 7----------------------|
E|-------- 6---- 8------ 9--------|---------------- 1------ 2------|
http://classicalguitartablature.blogspot.com/
E|---- 7---------- 6------ 5------| 7---------------------------- 8|
B|---- 6---------- 5------ 8------| 7------11--10------------------|
G| 2-- 4------ 4-- 6------ 7------| 7------11--12------12------12--|
D| 2---------- 6------ 5------ 5--|---- 7--10--10------10------10--|
A|--------------------------------|--------------------------------|
E| 3------ 4------ 5------ 7------| 8------10------11------12------|
http://classicalguitartablature.blogspot.com/
E|-------------------- 5----------|---------------------------- 3--|
B|10------------------ 6 6---- 5--|-------------- 2-------- 3-- 3--|
G| 7------ 3---------- 7-- 5-- 7--|---- 7-------- 4-------- 5-- 2--|
D|---- 7------ 2---------- 6-- 5--|---- 5------ 5------ 5-- 4------|
A| 8------------------------------|--------------------------------|
E|------ 3------ 5-------- 6---- 7|------ 6------ 5-------- 4------|
http://classicalguitartablature.blogspot.com/
E|--------------------------------|--------------------------------|
B|-------------------- 3------ 3--|-- 1-------- 1---- 1------ 1----|
G|---- 2------ 2------ 3------ 3--|-- 1-------- 1---- 1-------- 1--|
D|---- 2-------------- 1------ 1--|-- 1---------------- 3----------|
A|--------------------------------|--------------------------------|
E| 3-------------- 3------------ 3|-------------- 3----------------|
http://classicalguitartablature.blogspot.com/
E|--------------------------------| 3---------- 3---------- 3------|
B|---- 8-------- 8-------- 8------| 6---------------------- 2----11|
G|---- 7-------- 7-------- 6------| 5---------- 5 2-------- 0---- 8|
D|---- 7------ 7------ 6------ 5--|---- 3-------------- 2------ 210|
A|--------------------------------|--------------------------------|
E| 8---- 7-------- 6------ 5------| 4------ 3------ 2------ 0------|
http://classicalguitartablature.blogspot.com/
E|---------------- 4--------------|--------------------------------|
B|---------------- 6-- 1---- 4----| 8---------- 5------------------|
G|------ 5-------- 5-- 1---- 2----| 7---------- 3------ 3 1--------|
D|----10------ 6------ 1---- 4----|---- 6------ 3------ 3------ 0--|
A| 8------ 6------ 5---- 3---- 2--|--------------------------------|
E|--------------------------------| 6------ 4------ 3------ 1------|
http://classicalguitartablature.blogspot.com/
E|--------------------------------|--------------------------------|
B|---- 8-------- 8------ 8------ 8|------------ 8---------- 8------|
G|---- 5------ 610------10------ 7|------------ 7------ 7-- 7------|
D|---- 5------ 6------10 9---- 9--|---- 7------ 7------ 6------ 5--|
A| 7------ 6----------------------|--------------------------------|
E|----------------10------ 9---- 8|------ 7-------- 6------ 5------|
http://classicalguitartablature.blogspot.com/
E| 8------------ 6---------- 1-- 8|--------------------------------|
B| 6-------------- 6-- 2---- 0----| 6----------10------------------|
G| 6------ 3------ 6-- 3---- 1----| 6---------- 8------ 8 6---- 6 5|
D|---- 6------ 1------ 3----------|---- 6------ 8------ 7 6---- 5 5|
A|--------------------------------| 6------------------------------|
E| 4------ 3------ 2-- 1---- 0----|-------- 9------ 8-- 7 6---- 5 4|
http://classicalguitartablature.blogspot.com/
E|---- 6--------------------------| 6------ 5-- 4------------------|
B|---- 6--------10------ 9--------| 6------ 8-- 1------ 1----------|
G|---- 6------ 6 8------ 9--------| 5------ 5-- 1------ 1-- 2------|
D|------------ 6------10------ 8--|---- 6-------------- 1------ 1--|
A|--------------------------------| 5------ 7----------------------|
E|-------- 6---- 8------ 9--------|---------------- 1------ 2------|
http://classicalguitartablature.blogspot.com/
E|---- 7---------- 6------ 5------| 7---------------------------- 8|
B|---- 6---------- 5------ 8------| 7------11--10------------------|
G| 2-- 4------ 4-- 6------ 7------| 7------11--12------12------12--|
D| 2---------- 6------ 5------ 5--|---- 7--10--10------10------10--|
A|--------------------------------|--------------------------------|
E| 3------ 4------ 5------ 7------| 8------10------11------12------|
http://classicalguitartablature.blogspot.com/
E|-------------------- 5----------|---------------------------- 3--|
B|10------------------ 6 6---- 5--|-------------- 2-------- 3-- 3--|
G| 7------ 3---------- 7-- 5-- 7--|---- 7-------- 4-------- 5-- 2--|
D|---- 7------ 2---------- 6-- 5--|---- 5------ 5------ 5-- 4------|
A| 8------------------------------|--------------------------------|
E|------ 3------ 5-------- 6---- 7|------ 6------ 5-------- 4------|
http://classicalguitartablature.blogspot.com/
E|--------------------------------|--------------------------------|
B|-------------------- 3------ 3--|-- 1-------- 1---- 1------ 1----|
G|---- 2------ 2------ 3------ 3--|-- 1-------- 1---- 1-------- 1--|
D|---- 2-------------- 1------ 1--|-- 1---------------- 3----------|
A|--------------------------------|------------------------------ 7|
E| 3-------------- 3------------ 3|-------------- 3----------------|
http://classicalguitartablature.blogspot.com/
E|--------------------------------|---- 3------ 3------ 3------ 3--|
B|---- 8------ 8------ 8------ 8--|---- 4-------------- 6------ 6--|
G|---- 5------ 5------ 7---- 7----|---- 5------ 5------ 5------ 5--|
D|---- 9------ 9------ 8------ 8--|--------------------------------|
A|-------------- 6-------------- 5|-------------- 4----------------|
E|--------------------------------|--------------------------------|
http://classicalguitartablature.blogspot.com/
E|-- 3----------------------------|--------------------------------|
B|-- 3----------------------------|--------------------------------|
G| 4------------------------------|--------------------------------|
D|--------------------------------|--------------------------------|
A| 3------------------------------|--------------------------------|
E|--------------------------------|--------------------------------|
http://classicalguitartablature.blogspot.com/

0 ความคิดเห็น:

แสดงความคิดเห็น