To celebrate the anniversary, I am giving you (finally...) : iPhone LickByNeck !!!!!!

More (Intermediate)

Jazz tune fingerstyle chord melody guitar intermediate arrangement played in the key of G.
MORE played in the key of G.
http://classicalguitartablature.blogspot.com/
E| 3------------------------------|12------ 7-------------------- 5|
B| 1---------------------- 7-- 8--|10------ 8----10------ 8------ 5|
G|---- 2------ 2------ 2-- 7-- 7--|12------ 7---- 8------ 9------ 5|
D|------------------------ 7-- 6--|----11------ 9------10------ 9--|
A|--------------------------------| 0---------------------------- 5|
E| 3------ 2------ 3------ 5-- 6--|-------- 7------ 8---- 9--------|
http://classicalguitartablature.blogspot.com/
E|-------- 3----------------------| 2------------------------------|
B|-------- 3------ 8------ 7------| 1------ 5------ 5------ 4------|
G|-------- 3------ 5------ 7------|---- 2-- 5------ 5------ 5------|
D|---- 5------ 5------ 9------10--|------------ 3------ 5------ 4--|
A|-------- 6------ 7------ 9------|--------------------------------|
E|--------------------------------| 3------ 4------ 5------ 4------|
http://classicalguitartablature.blogspot.com/
http://classicalguitartablature.blogspot.com/
E|--------------------------------|---------------------- 7--------|
B| 3---------------------- 5-- 7 8|---- 8---- 7-- 8------ 8--------|
G| 2---------------------- 5-- 5 7|---- 7---- 5-- 9-------- 9------|
D|---- 2------ 2------ 0-- 7-- 7 5|---- 5---- 7-------- 9------ 9--|
A|------------------------ 6---- 7|------ 6---- 6------------------|
E| 3------ 2------ 0--------------|----------------10------ 9------|
http://classicalguitartablature.blogspot.com/
E|------------------------ 7------|--------------------------------|
B| 1---------------------- 5------|10------------------------------|
G| 2---------- 1------ 5-- 5------| 7------------------ 5----------|
D|---- 2------ 0------ 5------ 5--|---- 7------ 7------ 5------ 5--|
A| 3------ 2----------------------| 9------ 8------ 7------ 6------|
E|---------------- 5------ 3------|--------------------------------|
http://classicalguitartablature.blogspot.com/
E|--------------------------------|--------------------------------|
B|---------------------- 1---- 3 5|-------- 4------ 5------ 8------|
G| 4-------------------- 0---- 0 4|-------- 2------ 7------ 7------|
D|---- 5------ 5------ 0------ 2--|---- 5-- 4-- 4------ 5------ 5--|
A| 5------ 4------ 2------ 0------|------------------------ 5------|
E|--------------------------------| 3------ 2------ 0--------------|
http://classicalguitartablature.blogspot.com/
E|------------------------ 3------| 2------------------------------|
B|------------------------ 1------| 1------------------------------|
G| 2------------------ 5-- 2------| 2-- 2------ 2------ 2----------|
D|------ 2---- 0------ 5------ 2--|-------------------- 0------ 0--|
A| 3------ 2----------------------|--------------------------------|
E|---------------- 5------ 3------| 2------ 0------ 1------ 2------|
http://classicalguitartablature.blogspot.com/
E|--------------------------------|---------------------- 7--------|
B| 3---------------------- 5-- 7 8|---- 8---- 7-- 8------ 8--------|
G| 2---------------------- 5-- 5 7|---- 7---- 5-- 9-------- 9------|
D|---- 2------ 2------ 0-- 7-- 7 5|---- 5---- 7-------- 9------ 9--|
A|------------------------ 6---- 7|------ 6---- 6------------------|
E| 3------ 2------ 0--------------|----------------10------ 9------|
http://classicalguitartablature.blogspot.com/
E|------------------------ 7------|--------------------------------|
B| 1---------------------- 5------|10------------------------------|
G| 2---------- 1------ 5-- 5------| 7------------------ 5----------|
D|---- 2------ 0------ 5------ 5--|---- 7------ 7------ 5------ 5--|
A| 3------ 2----------------------| 9------ 8------ 7------ 6------|
E|---------------- 5------ 3------|--------------------------------|
http://classicalguitartablature.blogspot.com/
E|--------------------------------|--------------------------------|
B|---------------------- 1---- 3 5|-------- 4------ 5------ 8------|
G| 4-------------------- 0---- 0 4|-------- 2------ 7------ 7------|
D|---- 5------ 5------ 0------ 2--|---- 5-- 4-- 4------ 5------ 5--|
A| 5------ 4------ 2------ 0------|------------------------ 5------|
E|--------------------------------| 3------ 2------ 0--------------|
http://classicalguitartablature.blogspot.com/
E|------------------------ 3------| 2------------------------------|
B|------------------------ 1------| 1------------------------------|
G| 2------------------ 5-- 2------| 2------------------ 4------ 2--|
D|------ 2---- 0------ 5------ 2--|---- 2------ 2------ 7------ 1--|
A| 3------ 2----------------------|---------------- 6--------------|
E|---------------- 5------ 3------| 2------ 0-------------- 1------|
http://classicalguitartablature.blogspot.com/
E| 3-------------------- 2---- 3 5|------ 3------ 3----------------|
B| 3-------------------- 5------ 4|------ 3-------- 0------ 7------|
G| 0------ 2-- 2-- 3-- 3 4------ 2|------ 2-------- 0------ 4------|
D|---- 0-- 1-- 1------ 2----------|---- 4------ 1------ 0------ 7--|
A|--------------------------------|------------------------ 6------|
E| 0------ 1------ 2------ 3------| 2------ 1------ 0--------------|
http://classicalguitartablature.blogspot.com/
E|------------------------ 2-- 3 5|--------------------------------|
B| 8---------------------- 5---- 5|------ 8-------- 8------ 7------|
G| 7---------- 5------ 7-- 4------| 4---- 6-------- 6------ 6------|
D|---- 5------ 7-------- 5--------|---- 5------ 5------ 8------ 5--|
A| 5------ 6---- 7-------- 5------| 4------------------------------|
E|--------------------------------|-------- 7------ 6------ 5------|
http://classicalguitartablature.blogspot.com/
E| 3------------------------------|12------ 7-------------------- 5|
B| 1---------------------- 7-- 8--|10------ 8----10------ 8------ 5|
G|---- 2------ 2------ 2-- 7-- 7--|12------ 7---- 8------ 9------ 5|
D|------------------------ 7-- 6--|----11------ 9------10------ 9--|
A|--------------------------------| 0---------------------------- 5|
E| 3------ 2------ 3------ 5-- 6--|-------- 7------ 8---- 9--------|
http://classicalguitartablature.blogspot.com/
E|-------- 3----------------------| 2------------------------------|
B|-------- 3------ 8------ 7------| 1------ 5------ 5------ 4------|
G|-------- 3------ 5------ 7------|---- 2-- 5------ 5------ 5------|
D|---- 5------ 5------ 9------10--|------------ 3------ 5------ 4--|
A|-------- 6------ 7------ 9------|--------------------------------|
E|--------------------------------| 3------ 4------ 5------ 4------|
http://classicalguitartablature.blogspot.com/
E|--------------------------------|---------------------- 7--------|
B| 3---------------------- 5-- 7 8|---- 8---- 7-- 8------ 8--------|
G| 2---------------------- 5-- 5 7|---- 7---- 5-- 9-------- 9------|
D|---- 2------ 2------ 0-- 7-- 7 5|---- 5---- 7-------- 9------ 9--|
A|------------------------ 6---- 7|------ 6---- 6------------------|
E| 3------ 2------ 0--------------|----------------10------ 9------|
http://classicalguitartablature.blogspot.com/
E|------------------------ 7------|--------------------------------|
B| 1---------------------- 5------|10------------------------------|
G| 2---------- 1------ 5-- 5------| 7------------------ 5----------|
D|---- 2------ 0------ 5------ 5--|---- 7------ 7------ 5------ 5--|
A| 3------ 2----------------------| 9------ 8------ 7------ 6------|
E|---------------- 5------ 3------|--------------------------------|
http://classicalguitartablature.blogspot.com/
E|--------------------------------|--------------------------------|
B|---------------------- 1---- 3 5|-------- 4------ 5------ 8------|
G| 4-------------------- 0---- 0 4|-------- 2------ 7------ 7------|
D|---- 5------ 5------ 0------ 2--|---- 5-- 4-- 4------ 5------ 5--|
A| 5------ 4------ 2------ 0------|------------------------ 5------|
E|--------------------------------| 3------ 2------ 0--------------|
http://classicalguitartablature.blogspot.com/
E|------------------------ 3------| 2------------------------------|
B|------------------------ 1------| 1------------------------------|
G| 2------------------ 5-- 2------| 2------------------ 4------ 2--|
D|------ 2---- 0------ 5------ 2--|---- 2------ 2------ 7------ 1--|
A| 3------ 2----------------------|---------------- 6--------------|
E|---------------- 5------ 3------| 2------ 0-------------- 1------|
http://classicalguitartablature.blogspot.com/
E| 3-------------------- 2---- 3 5|------ 3------ 3----------------|
B| 3-------------------- 5------ 4|------ 3-------- 0------ 7------|
G| 0------ 2-- 2-- 3-- 3 4------ 2|------ 2-------- 0------ 4------|
D|---- 0-- 1-- 1------ 2----------|---- 4------ 1------ 0------ 7--|
A|--------------------------------|------------------------ 6------|
E| 0------ 1------ 2------ 3------| 2------ 1------ 0--------------|
http://classicalguitartablature.blogspot.com/
E|------------------------ 2-- 3 5|--------------------------------|
B| 8---------------------- 5---- 5|------ 8-------- 8------ 7------|
G| 7---------- 5------ 7-- 4------| 4---- 6-------- 6------ 6------|
D|---- 5------ 7-------- 5--------|---- 5------ 5------ 8------ 5--|
A| 5------ 6---- 7-------- 5------| 4------------------------------|
E|--------------------------------|-------- 7------ 6------ 5------|
http://classicalguitartablature.blogspot.com/
E| 3------------------------------| 5------------------------------|
B| 1---------------------- 7-- 8--| 5-------- 8---- 8------ 7------|
G|---- 2------ 2------ 2-- 7-- 7--| 5-------- 7---- 9------ 4------|
D|------------------------ 7-- 6--|---- 5---- 6-------- 7------ 5--|
A|--------------------------------|------------------------ 4------|
E| 3------ 2------ 3------ 5-- 6--| 5------ 7-- 7-- 8--------------|
http://classicalguitartablature.blogspot.com/
E|--------------------------------|--------------------------------|
B|-- 8----------------------------|--------------------------------|
G|12------------------------------|--------------------------------|
D| 9------------------------------|--------------------------------|
A|--------------------------------|--------------------------------|
E|10------------------------------|--------------------------------|
http://classicalguitartablature.blogspot.com/

0 ความคิดเห็น:

แสดงความคิดเห็น