To celebrate the anniversary, I am giving you (finally...) : iPhone LickByNeck !!!!!!

Secret Love

Jazz standards fingerstyle chord melody guitar arrangment played in the key of Eb.
Secret Love played in the key of Eb.
http://classicalguitartablature.blogspot.com/
E|-------------- 4------ 8--------| 6------------ 1----------------|
B| 1------ 6-- 8 6------ 8--------| 5------------ 2------ 8--------|
G| 1------ 7-- 7------ 5 7--------| 3-- 3 3------------ 2 7--------|
D|---- 1-- 6-- 6-------------- 6--|------------ 2-------- 6--------|
A|-------------- 6------ 5--------| 4---- 3------ 2----------------|
E| 1------ 0----------------------|---------------------- 6---- 4--|
http://classicalguitartablature.blogspot.com/
E|--------------------------------|--------------------------------|
B| 4-- 4---------- 4-- 4------ 4--| 4-- 4------ 4-- 4-- 4------ 4--|
G| 3-- 3------ 3-- 5-- 5------ 5--| 1-- 1------ 1-- 4-- 4------ 5--|
D| 3---- 3------ 3 5---- 5---- 6--| 3-- 3------ 1-- 3-- 3------ 4--|
A|--------------------------------| 2------ 3------ 4------ 5------|
E| 3------ 4------ 5------ 6------|--------------------------------|
http://classicalguitartablature.blogspot.com/
http://classicalguitartablature.blogspot.com/
E| 6------------------------------| 3-------------------------- 3--|
B| 6---------------------- 9------| 4---- 4-------- 6---- 3--------|
G| 5------------------ 3-- 8------| 5------ 4------ 3---- 1---- 1--|
D|---- 5------ 5------ 5------ 6--|---- 5------ 3-- 5-- 5 3--------|
A| 6------ 5------ 3--------------|--------------------------------|
E|------------------------ 7------| 5------ 4------ 3------ 1------|
http://classicalguitartablature.blogspot.com/
E|--------------------------------|--------------------------------|
B|--------------------------------|--------------------------------|
G| 3-- 3------------------ 5------| 5------------------ 1 3--------|
D| 5-- 5------ 3------ 5-- 5------|---- 3-------------- 1------ 6--|
A| 6------ 5------ 3--------------|--------------------------------|
E|------------------------ 6-- 5--| 4------ 3-- 2 1------ 0--------|
http://classicalguitartablature.blogspot.com/
E|--------------------------------|---- 4---------- 6-- 8----------|
B| 4---------------------- 6------| 8-- 7---------- 5-- 9-------- 6|
G| 3---------- 3---------- 7------| 6---- 6---- 6-- 3-- 9------ 9 8|
D| 5-- 5------ 3------ 3------ 6--| 5---------- 4-- 5---------- 8 6|
A| 6------ 5------ 3--------------|------------------------ 9------|
E|------------------------ 7------| 6------ 5------ 3--------------|
http://classicalguitartablature.blogspot.com/
E|--------------------------------|--------------------------------|
B|---- 6--------------------------|--------------------------------|
G|---- 8------ 7-- 5---------- 3--| 1---------- 1-- 3---------- 3--|
D|---- 6------ 6------ 6------ 6--|---- 1------ 3------ 3------ 2--|
A| 8------ 7------ 6------ 5------| 3------ 1----------------------|
E|--------------------------------|---------------- 4------ 3------|
http://classicalguitartablature.blogspot.com/
E| 4------------------------------|---------------------- 1--------|
B| 4------------------------------| 6------ 3------ 4---- 2--------|
G| 3---------- 1-- 6---------- 5--| 3------ 4------ 3---------- 2--|
D|---- 2------ 1------ 8------ 6--|---- 6------ 3------ 2----------|
A|---------------- 7------ 6------| 5------ 4------ 3------ 2------|
E| 2------ 1----------------------|--------------------------------|
http://classicalguitartablature.blogspot.com/
E|--------------------------------|--------------------------------|
B|--------------------------------|------------------------------ 3|
G| 3-------------------------- 1--| 5---------- 3 1-------- 3---- 5|
D|---- 6-------- 3---- 1------ 1--|---- 6------ 6------ 1------ 3--|
A|------------------------------ 6|------ 5------ 3-------- 1------|
E| 6------ 4------ 3------ 1------|--------------------------------|
http://classicalguitartablature.blogspot.com/
E|--------------------------------|------ 3------------------------|
B|---------------------- 4--------| 6---- 1-------- 4------ 3------|
G|------------ 3-- 1------ 5------| 3---- 1-------- 5------ 3------|
D|---- 3------ 2------ 1------ 6--|---- 6------ 1------ 6-- 3-- 3--|
A|------------------------ 6------| 5------ 3----------------------|
E| 4---- 3-------- 1--------------|---------------- 6------ 4------|
http://classicalguitartablature.blogspot.com/
E|--------------------------------|--------------------------------|
B| 4-- 4---------- 4-- 4------ 4--| 4-- 4------ 4-- 4-- 4------ 4--|
G| 3-- 3------ 3-- 5-- 5------ 5--| 1-- 1------ 1-- 4-- 4------ 5--|
D| 3---- 3------ 3 5---- 5---- 6--| 3-- 3------ 1-- 3-- 3------ 4--|
A|--------------------------------| 2------ 3------ 4------ 5------|
E| 3------ 4------ 5------ 6------|--------------------------------|
http://classicalguitartablature.blogspot.com/
E| 6------------------------------| 3-------------------------- 3--|
B| 6---------------------- 9------| 4---- 4-------- 6---- 3--------|
G| 5------------------ 3-- 8------| 5------ 4------ 3---- 1---- 1--|
D|---- 5------ 5------ 5------ 6--|---- 5------ 3-- 5-- 5 3--------|
A| 6------ 5------ 3--------------|--------------------------------|
E|------------------------ 7------| 5------ 4------ 3------ 1------|
http://classicalguitartablature.blogspot.com/
E|--------------------------------|--------------------------------|
B|--------------------------------|--------------------------------|
G| 3-- 3------------------ 5------| 5------------------ 1 3--------|
D| 5-- 5------ 3------ 5-- 5------|---- 3-------------- 1------ 6--|
A| 6------ 5------ 3--------------|--------------------------------|
E|------------------------ 6-- 5--| 4------ 3-- 2 1------ 0--------|
http://classicalguitartablature.blogspot.com/
E|--------------------------------|---- 4---------- 6-- 8----------|
B| 4---------------------- 6------| 8-- 7---------- 5-- 9-------- 6|
G| 3---------- 3---------- 7------| 6---- 6---- 6-- 3-- 9------ 9 8|
D| 5-- 5------ 3------ 3------ 6--| 5---------- 4-- 5---------- 8 6|
A| 6------ 5------ 3--------------|------------------------ 9------|
E|------------------------ 7------| 6------ 5------ 3--------------|
http://classicalguitartablature.blogspot.com/
E|--------------------------------|--------------------------------|
B|---- 6--------------------------|--------------------------------|
G|---- 8------ 7-- 5---------- 3--| 1---------- 1-- 3---------- 3--|
D|---- 6------ 6------ 6------ 6--|---- 1------ 3------ 3------ 2--|
A| 8------ 7------ 6------ 5------| 3------ 1----------------------|
E|--------------------------------|---------------- 4------ 3------|
http://classicalguitartablature.blogspot.com/
E| 4------------------------------|---------------------- 1--------|
B| 4------------------------------| 6------ 3------ 4---- 2--------|
G| 3---------- 1-- 6---------- 5--| 3------ 4------ 3---------- 2--|
D|---- 2------ 1------ 8------ 6--|---- 6------ 3------ 2----------|
A|---------------- 7------ 6------| 5------ 4------ 3------ 2------|
E| 2------ 1----------------------|--------------------------------|
http://classicalguitartablature.blogspot.com/
E|--------------------------------|--------------------------------|
B|--------------------------------|------------------------------ 3|
G| 3-------------------------- 1--| 5---------- 3 1-------- 3---- 5|
D|---- 6-------- 3---- 1------ 1--|---- 6------ 6------ 1------ 3--|
A|------------------------------ 6|------ 5------ 3-------- 1------|
E| 6------ 4------ 3------ 1------|--------------------------------|
http://classicalguitartablature.blogspot.com/
E|--------------------------------|------ 3------------------------|
B|---------------------- 4--------| 6---- 1-------- 4------ 3------|
G|------------ 3-- 1------ 5------| 3---- 1-------- 5------ 3------|
D|---- 3------ 2------ 1------ 6--|---- 6------ 1------ 6-- 3-- 3--|
A|------------------------ 6------| 5------ 3----------------------|
E| 4---- 3-------- 1--------------|---------------- 6------ 4------|
http://classicalguitartablature.blogspot.com/
E|--------------------------------|--------------------------------|
B| 4-------------- 4--------------|--------------------------------|
G| 3-- 3-- 5---- 4------------ 0 5|------------ 5-- 4---------- 1--|
D| 3-- 3------ 3------ 3------ 0--|---- 7------ 6------ 3------ 3--|
A|------------------------------ 6|------ 5------ 4------ 2--------|
E| 3------ 4---- 3------ 1--------|--------------------------------|
http://classicalguitartablature.blogspot.com/
E|11--------------------10------ 8|-------- 5------ 6------ 8------|
B| 8---------------------- 8---- 8|-------- 4------ 6------ 6------|
G| 8-- 8------10------12-- 7---- 8|-------- 3------ 5------ 6------|
D|---- 8------ 9------10------ 8--|---- 8------ 5------ 4------ 5--|
A|------------------------ 7------| 8------------------------------|
E| 8------10----11----------------|-------- 3------ 4------ 5------|
http://classicalguitartablature.blogspot.com/
E|10---------------------- 6------| 1---------------------------- 9|
B|10-------------- 6------ 8------| 3---------------------------- 6|
G|10--10-- 8------ 5---------- 7--|---- 3-- 2---- 3------ 5------ 6|
D|------------ 8------ 5----------|------------ 1------ 1------ 3--|
A|---------------- 5------ 7------|--------------------------------|
E| 6------ 8----------------------| 1------ 2------ 3---- 5------ 6|
http://classicalguitartablature.blogspot.com/
E|---------------------- 8------ 6|------ 3-------- 4---- 6--------|
B|---------------------- 9------ 6|------ 2------ 4------ 4--------|
G|---- 6------ 8------1010------ 6|-------- 1------ 3------ 4------|
D|------------ 7------ 8------10--|---- 6------ 3------ 2------ 3--|
A|------------------------------ 6|--------------------------------|
E|------ 8------ 9------10--------|-------- 1------ 2------ 3------|
http://classicalguitartablature.blogspot.com/
E| 8------------------------------| 7------------------------------|
B| 8-------------- 4------ 4------| 4-------------------- 4--------|
G| 8-- 8------ 6-- 3------ 3------| 4------ 1---- 4-------- 5------|
D|------------ 6------ 3------ 5--| 4-- 4------ 1------ 4-- 6-- 6--|
A|---------------- 3------ 4------| 6------------------------------|
E| 4------ 6----------------------|-------- 2---- 4-------- 6------|
http://classicalguitartablature.blogspot.com/
E| 6------------------------------| 3-------------------------- 3--|
B| 6---------------------- 9------| 4---- 4-------- 6---- 3--------|
G| 5------------------ 3-- 8------| 5------ 4------ 3---- 1---- 1 3|
D|---- 5------ 5------ 5------ 6--|---- 5------ 3-- 5-- 5 3--------|
A| 6------ 5------ 3--------------|--------------------------------|
E|------------------------ 7------| 5------ 4------ 3------ 1---- 0|
http://classicalguitartablature.blogspot.com/
E|--------------------------------|--------------------------------|
B|--------------------------------|---------------------- 1--------|
G|-------------- 3-------------- 6|-------------- 3------ 3--------|
D|---- 5------ 5------ 5------ 5--|---- 5------ 5------ 2------ 2--|
A|------ 6------ 4------ 3--------|--------------------------------|
E|------------------------------ 6|------ 5------ 3------ 2--------|
http://classicalguitartablature.blogspot.com/
E|-------------- 4------ 8--------| 6------------ 1------ 3--------|
B| 1------ 6-- 8 6------ 8--------| 5------------ 2------ 1------ 4|
G| 1------ 7-- 7------ 5 7--------| 3-- 3 3------------ 2 1------ 5|
D|---- 1-- 6-- 6-------------- 6--|------------ 2-------------- 1 5|
A|-------------- 6------ 5--------| 4---- 3------ 2-------- 1------|
E| 1------ 0----------------------|------------------------------ 5|
http://classicalguitartablature.blogspot.com/
E|---------------------- 3--------|---- 4-------- 6------ 8--------|
B|------------ 6-------- 3--------|---- 4---------- 8---- 8--------|
G|------------ 5-------- 3--------|---- 3-------- 8------ 7------ 7|
D|------------ 4------------------|--------------------------------|
A|--------------------------------|-------------- 8------ 7------ 6|
E|------------ 4---------- 3------|---- 2--------------------------|
http://classicalguitartablature.blogspot.com/
E|10------------------------------|--------------------------------|
B| 8------------------------------|--------------------------------|
G|--------------------------------|--------------------------------|
D|--------------------------------|--------------------------------|
A|--------------------------------|--------------------------------|
E|--------------------------------|--------------------------------|
http://classicalguitartablature.blogspot.com/

0 ความคิดเห็น:

แสดงความคิดเห็น