To celebrate the anniversary, I am giving you (finally...) : iPhone LickByNeck !!!!!!
0 com

Cinema Paradiso Love Theme (Intermediate)

Ennio Morricone's tune fingerstyle chord melody guitar Intermediate arrangement played in the key of Em. Cinema Paradiso Love Theme-Ennio Morricone-Intermediate ARRANGEMENT played In the key of Em
http://classicalguitartablature.blogspot.com/
E|--------------------------------| 3------------------ 3-- 2-- 0--|
B| 5-------------------------- 7--|------------ 0-- 1------ 3-- 3--|
G| 4------ 4-------------- 4------|------------ 0-- 2--------------|
D|---- 5------ 5------ 5----------|---- 0------ 0------------------|
A| 2-------------- 6--------------|-------- 5------ 3------ 2------|
E|--------------------------------| 0------------------------------|
http://classicalguitartablature.blogspot.com/
E|---- 5--------------------------|------------ 2-- 5--------------|
B| 7------ 3------ 1------ 0------|---- 0-- 3------ 8-- 8-- 7-- 8--|
G| 5-------- 5---- 2------ 0------|---- 2-- 2------ 7-- 7-- 5-- 5--|
D| 7---- 4------------ 1-- 0-- 0--|---- 0-------------- 5-- 7-- 7--|
A|--------------------------------|---------------- 7------ 6------|
E| 5------ 4------ 2------ 3------| 2------ 1----------------------|
http://classicalguitartablature.blogspot.com/
http://classicalguitartablature.blogspot.com/
E| 7--------------------------10--| 8----------------------12--10--|
B| 8-------------- 5-- 4-- 5-- 8--| 6------------------10--12--10--|
G| 9-- 9------ 9-- 4-- 2-- 7-- 9--| 5------ 2----------11--11-- 9--|
D|---------------- 5-- 4-- 6------|-------- 2----------10----------|
A|---------------- 3-- 2------ 0--|--------------------------------|
E|10------ 9-------------- 6------| 4-- 3-- 2 1---- 0------11-- 9--|
http://classicalguitartablature.blogspot.com/
E|10-- 8-- 7-- 5-- 3--------------|-- 5 3 2------ 0----------------|
B|10-- 7-- 4-- 3-- 5--------------|------------ 3------ 0----------|
G| 9-- 8-- 4-- 3-------- 4---- 4--|------------------ 0-------- 0--|
D|-------------------- 5------ 5--|-------------------------- 2----|
A|--------------------------------|-------- 5---- 4------ 3--------|
E| 8-- 7-- 5-- 4-- 3------ 2------| 0------------------------------|
http://classicalguitartablature.blogspot.com/
E|--------------------------------|---------------- 3--------------|
B|---- 5-- 7-- 8-- 7--------------|---------------------------- 0--|
G|---- 6-- 6------ 5---- 5------ 5| 4------ 2-- 2-------------- 0--|
D|---- 7-- 5---------- 7------ 4--|---- 2-- 2-- 1------ 0------ 0--|
A|--------------------------------|------------------------ 5------|
E| 7---- 6-------- 5------ 4------| 3---- 2---- 1-- 0--------------|
http://classicalguitartablature.blogspot.com/
E|---- 3-- 2-- 0------ 5----------|---------------------------- 2--|
B| 1------ 3-- 3-- 7------ 3------| 1------ 0---------- 0-- 3------|
G| 2-------------- 5-------- 5----| 2------ 0---------- 2-- 2------|
D|---------------- 7---- 4--------|---- 1-- 0-- 0------ 0----------|
A| 3------ 2----------------------|--------------------------------|
E|---------------- 5------ 4------| 2------ 3------ 2------ 1------|
http://classicalguitartablature.blogspot.com/
E| 5-------------- 7--------------|------------10-- 8--------------|
B| 8-- 8-- 7-- 8-- 8--------------| 5-- 4-- 5-- 8-- 6--------------|
G| 7-- 7-- 5-- 5-- 9-- 9------ 9--| 4-- 2-- 7-- 9-- 5------ 2------|
D|---- 5-- 7-- 7------------------| 5-- 4-- 6-------------- 2------|
A| 7------ 6----------------------| 3-- 2------ 0------------------|
E|----------------10------ 9------|-------- 6------ 4-- 3-- 2 1----|
http://classicalguitartablature.blogspot.com/
E|--------12--10--10-- 8-- 7-- 5--| 3---------------- 5 3 2------ 0|
B|----10--12--10--10-- 7-- 4-- 3--| 5-------------------------- 3--|
G|----11--11-- 9-- 9-- 8-- 4-- 3--|------ 4---- 4------------------|
D|----10--------------------------|---- 5------ 5------------------|
A|--------------------------------|------------------------ 5---- 4|
E| 0------11-- 9-- 8-- 7-- 5-- 4--| 3------ 2------ 0--------------|
http://classicalguitartablature.blogspot.com/
E|--------------------------------|--------------------------------|
B|---- 0-------------- 5-- 7-- 8--| 3------------------ 1-- 1------|
G|-- 0-------- 0------ 6-- 6------| 5---- 5---- 5------ 2-- 2-- 2--|
D|---------- 2-------- 7-- 5------|---- 5---- 3-------- 2---- 2----|
A|------ 3------------------------|--------------------------------|
E|---------------- 7---- 6--------| 5---- 4-------- 3------ 2------|
http://classicalguitartablature.blogspot.com/
E|--------------------------------|--------------------------------|
B| 1-------- 1-- 0----------------|--------------------------------|
G|------ 0------ 0---- 4----------|--------------------------------|
D|---- 1-------- 2---- 5----------|--------------------------------|
A|-------------------- 6----------|--------------------------------|
E| 1------------ 0----------------|--------------------------------|
http://classicalguitartablature.blogspot.com/
0 com

Promise Me (BASIC)

Beverly Craven's classic tune fingerstyle chord melody guitar BASIC arrangement played in the key of Cm. Promise Me- BASIC ARRANGEMENT played in the key of Cm
http://classicalguitartablature.blogspot.com/
E|--------------------------------|--------------------------------|
B| 4---- 4---- 4-- 3-- 3---- 3-- 1|------ 1---- 1-- 3-- 3---- 3-- 4|
G|---- 5---- 5------ 3---- 3---- 1|---- 1-- 1------ 3 3---- 3------|
D|-- 5---- 5-- 5---- 3-- 3------ 3|-- 1---- 1---- 1-- 3-- 3------ 3|
A| 3-------------- 3--------------| 3-------------- 3------------ 3|
E|--------------------------------|--------------------------------|
http://classicalguitartablature.blogspot.com/
E|--------------------------------|--------------------------------|
B|---- 4---- 4---- 3---- 3---- 3--| 1---- 1---- 1-- 3--------------|
G| 5 5---- 5---- 3---- 3---- 3----| 1-- 1---- 1---- 3--------------|
D|-- 5---- 5-- 5---- 3---- 3---- 3|-- 1---- 1---- 1 3--------------|
A|---------------- 3--------------| 3-------------- 3--------------|
E|--------------------------------|--------------------------------|
http://classicalguitartablature.blogspot.com/
http://classicalguitartablature.blogspot.com/
E|--------------------------------|--------------------------------|
B|---- 4 4 4---- 4---- 3 3--------|---- 3 3 3 4-- 1------ 1--------|
G|---- 5 5 5-- 5 3---- 3 3---- 5 3|---- 3 3 3 3 3 1---- 1-- 1-- 3--|
D|-- 5------ 5-- 3 3--------------|-- 3-------------- 1---- 1-- 3--|
A| 3-------------- 3--------------|--------------------------------|
E|--------------------------------| 3-------------- 4------ 4-- 6--|
http://classicalguitartablature.blogspot.com/
E|------------------------------ 8|--------------------------------|
B|---- 4 4-- 4 6------ 4-- 3----11|--11-- 8---- 8-------- 8--------|
G|---- 5 5-- 5 3---- 3------ 5 310|--10------10------ 8------ 8----|
D|-- 5-- 5-- 5 3-- 3--------------| 8-- 8------------10----10------|
A| 3------------ 3--------------10|----------------11--------------|
E|--------------------------------|--------------------------------|
http://classicalguitartablature.blogspot.com/
E|---- 811-- 8-- 3-------------- 6| 4-- 3--------------------------|
B|--11 8 8-- 811 3-- 6-- 4------ 3|-- 3 3-- 4---- 1----------------|
G|-- 8 8-- 8 8 8 3-- 3-- 3 5-- 3 3|-- 3 3-- 3---- 1---- 1------ 1 3|
D|-- 8-------- 8---- 3-- 3--------|------------ 3---- 1------ 1 1 1|
A|---------------- 3--------------|--------------------------------|
E| 8---------------------------- 3|-------------- 4-------- 4-- 3--|
http://classicalguitartablature.blogspot.com/
E|---------- 3-- 3----------------|--------------------------------|
B| 1-- 1 4------ 3-- 6 4-------- 1|---- 1------ 1 3---- 4----------|
G| 1-- 1-------- 1-- 4 4-- 5---- 3|-- 3---- 3---- 3-- 3 3------ 0--|
D|-- 1-------- 1-- 3 3 3----------|-- 1-- 1------ 1 3------ 5-- 0 1|
A|------------------------------ 3|-------------- 5------ 6--------|
E| 1-------------- 3--------------|---------------------------- 3--|
http://classicalguitartablature.blogspot.com/
E|--------------------------------|--------------------------------|
B|---- 1---- 1-------- 1 0--------|---- 4 4 4---- 4---- 3 3--------|
G| 1 1---- 1-------- 0---- 0------|---- 5 5 5-- 5 3---- 3 3---- 5 3|
D|------ 1---- 1-- 0-------- 0----|-- 5------ 5-- 3 3--------------|
A|--------------------------------| 3-------------- 3--------------|
E| 4------------ 3----------------|--------------------------------|
http://classicalguitartablature.blogspot.com/
E|--------------------------------|------------------------------ 8|
B|---- 3 3 3 4-- 1------ 1--------|---- 4 4-- 4 6------ 4-- 3----11|
G|---- 3 3 3 3 3 1---- 1-- 1-- 3--|---- 5 5-- 5 3---- 3------ 5 310|
D|-- 3-------------- 1---- 1-- 3--|-- 5-- 5-- 5 3-- 3--------------|
A|--------------------------------| 3------------ 3--------------10|
E| 3-------------- 4------ 4-- 6--|--------------------------------|
http://classicalguitartablature.blogspot.com/
E|--------------------------------|-- 3 4 3-- 1 1------------------|
B|--11-- 8---- 8-------- 8--------|-- 3 3-- 0-- 4-- 4---- 3-- 1----|
G|--10------10------ 8------ 8----| 4------ 0-- 3-------- 3--------|
D| 8-- 8------------10----10------|---------- 0-------- 1----------|
A|----------------11--------------|-------- 2---- 3------ 3---- 5 6|
E|------------------------------ 3|--------------------------------|
http://classicalguitartablature.blogspot.com/
E|-- 8 9-- 8-- 6------------------|---------- 8 6------------------|
B|-- 5 5 8--11 9-- 9-- 8-- 6------|---- 4 6---- 6-- 9-- 6----------|
G|-- 5 5-- 9---- 8 8---------- 8--|-- 5---------- 6-------- 6---- 5|
D|-------- 8-------- 6------ 6----| 6---------------- 6------ 6-- 6|
A| 7------10---- 8------ 8------ 4|-------------- 6----------------|
E|--------------------------------|---------------------- 6--------|
http://classicalguitartablature.blogspot.com/
E|--------------------------------|---- 3 4-- 6-- 8-- 6------------|
B|-- 4 4------ 4-- 8--1111----11--| 6-------------- 6------ 9 6----|
G|-------------- 5 8------------ 8|-- 5-------- 5-- 6------ 6------|
D|---------- 6------ 8------ 8----|-------------------- 6---- 6-- 6|
A|--------------------------------| 4-------------- 6--------------|
E| 4-------------- 8--------------|------------------------ 6------|
http://classicalguitartablature.blogspot.com/
E|------------1311-- 9---- 8------|------------ 8 6----------------|
B| 4---- 4------ 8-- 8---- 811-- 9|------ 9------ 6---- 6-------- 4|
G| 5 5---------- 8---------- 8-- 6|---- 6-- 8-------- 6------ 1-- 3|
D|-- 6------------------ 8--------|-- 6-------------- 6---------- 1|
A|----------------10--------------| 8-------------- 6--------------|
E| 4------------------------------|---------------------- 1---- 3--|
http://classicalguitartablature.blogspot.com/
E|--------------------------------|-- 3-- 4-- 6---- 8-- 9 8-- 6----|
B|-- 4 4---- 4-- 8--1111----11-- 6|-------------- 6 8---- 8------ 9|
G|------------ 5 8------------ 8--| 5---------- 5-- 9---- 6---- 6 8|
D| 6------ 6------ 8------ 8------|------------------ 8---------- 6|
A|------------------------------ 4|------ 4---------------- 7------|
E| 4---- 4------ 8------ 8--------|---------------- 8--------------|
http://classicalguitartablature.blogspot.com/
E|--------------------------------|-------- 8-------------- 8------|
B|------ 9-- 9 8 6----------------|---- 8 9---------- 8-- 9--------|
G|---- 8---- 8 5 5----------------|----1010----10---- 6-- 6---- 6 5|
D|-- 6------ 6 8-- 6--------------|--10------10---- 6-------- 6-- 6|
A| 8-------- 8 7-- 5--------------|-------------- 6----------------|
E|--------------------------------| 9------------------------------|
http://classicalguitartablature.blogspot.com/
E|--------------------------------|---- 3 4-- 6-- 8-- 6------------|
B|-- 4 4------ 4-- 8--1111----11--| 6-------------- 6------ 9 6----|
G|-------------- 5 8------------ 8|-- 5-------- 5-- 6------ 6------|
D|---------- 6------ 8------ 8----|-------------------- 6---- 6-- 6|
A|--------------------------------| 4-------------- 6--------------|
E| 4-------------- 8--------------|------------------------ 6------|
http://classicalguitartablature.blogspot.com/
E|------------1311-- 9---- 8------|------------ 8 6----------------|
B| 4---- 4------ 8-- 8---- 811-- 9|------ 9------ 6---- 6-------- 4|
G| 5 5---------- 8---------- 8-- 6|---- 6-- 8-------- 6------ 1-- 3|
D|-- 6------------------ 8--------|-- 6-------------- 6---------- 1|
A|----------------10--------------| 8-------------- 6--------------|
E| 4------------------------------|---------------------- 1---- 3--|
http://classicalguitartablature.blogspot.com/
E|--------------------------------|-- 3-- 4-- 6---- 8-- 9 8-- 6----|
B|-- 4 4---- 4-- 8--1111----11-- 6|-------------- 6 8---- 8------ 9|
G|------------ 5 8------------ 8--| 5---------- 5-- 9---- 6---- 6 8|
D| 6------ 6------ 8------ 8------|------------------ 8---------- 6|
A|------------------------------ 4|------ 4---------------- 7------|
E| 4---- 4------ 8------ 8--------|---------------- 8--------------|
http://classicalguitartablature.blogspot.com/
E|--------------------------------|-------- 8-------------- 8------|
B|------ 9-- 9 8 6----------------|---- 8 9---------- 8-- 9--------|
G|---- 8---- 8 5 5----------------|----1010----10---- 6-- 6---- 6--|
D|-- 6------ 6 8-- 6--------------|--10------10---- 6-------- 6----|
A| 8-------- 8 7-- 5--------------|-------------- 6----------------|
E|--------------------------------| 9---------------------------- 4|
http://classicalguitartablature.blogspot.com/
E| 4------------------------------|------------ 8------------------|
B| 4-------- 4------ 4------------|------ 8 9---------------- 8-- 9|
G| 3------ 3---- 3------ 3--------|--------------------------------|
D|---------------- 3------ 3------|-- 6-------------------- 6------|
A|--------------------------------|-------------------- 6----------|
E|--------------------------------| 6------------------------------|
http://classicalguitartablature.blogspot.com/
E|-- 8------------------------ 4--|--------------------------------|
B|--------------------------------|--------------------------------|
G|-------------------------- 3----|--------------------------------|
D|--------------------------------|--------------------------------|
A|--------------------------------|--------------------------------|
E|-------------------------- 4----|--------------------------------|
http://classicalguitartablature.blogspot.com/
0 com

Now And Forever (BASIC)

Richad Marx's classic tune fingerstyle chord melody guitar BASIC arrangement played in the key of G. Now And Forever- BASIC ARRANGEMENT played in the key of G
http://classicalguitartablature.blogspot.com/
E|-------- 3----------------------|------ 3------------------------|
B|-------- 0---- 0-- 1---- 3 1----|------ 1------------ 1 1 0------|
G|-------------- 0-- 0-- 0-- 0----|---------------- 0-------- 0----|
D|---- 0---- 0-- 0-- 2---- 4-- 2--|-- 2-------- 2------------------|
A|--------------------------------|--------------------------------|
E| 3------------------------------|------------------------------ 3|
http://classicalguitartablature.blogspot.com/
E|-------- 3----------------------|-------- 3----------------------|
B|-------- 0---- 0---- 1-- 3-- 1--|-------------------- 1-- 1 0----|
G|---------------- 0-- 0-- 0-- 0--|---------------- 0---------- 0--|
D|---- 0------ 0-- 0-- 2---- 4 2--|---- 2------ 2------------------|
A|--------------------------------|--------------------------------|
E|--------------------------------|--------------------------------|
http://classicalguitartablature.blogspot.com/
http://classicalguitartablature.blogspot.com/
E|--------------------------------|--------------------------------|
B|-------- 0-------------------- 0|---------------------------- 0--|
G|---------- 0-------- 0---- 2-- 0|-------- 0-------------- 2-- 2--|
D|---- 0-------- 4----------------|---- 2------ 2------ 2----------|
A|--------------------------------|--------------------------------|
E| 3------------ 2-------------- 0|---------------- 0--------------|
http://classicalguitartablature.blogspot.com/
E|--------------------------------|---------------- 0--------------|
B| 1---- 1---- 1-- 0--------------|------ 3---------------- 3------|
G| 2---- 2---- 2-- 0---- 2---- 0--| 2---------- 2------ 2------ 2--|
D| 2---- 2---- 2 0----------------|---- 0--------------------------|
A| 0------------------------------|--------------------------------|
E|---------------- 3--------------| 2------------------------------|
http://classicalguitartablature.blogspot.com/
E|--------------------------------|--------------------------------|
B|-------- 0------------ 3------ 0|-------------------------- 0-- 1|
G|------------ 0-------------- 5 0|-- 2------ 0---------- 2------ 2|
D|---- 0-------- 4-------------- 2|-------- 2-------- 2---------- 2|
A|--------------------------------|------------------------------ 0|
E| 3-------------- 2--------------| 0-------------- 0--------------|
http://classicalguitartablature.blogspot.com/
E|--------------------------------|--------------------------------|
B|---- 1---- 1---- 0-- 1---- 3----| 0-------------- 3--------------|
G|---- 2------ 2 0---- 0---- 0----|-- 2-------- 2---- 2-------- 2--|
D|------ 2---- 2 0---- 0---- 0-- 0|-------- 0-------------- 0------|
A|--------------------------------|--------------------------------|
E|-------------- 3-------------- 2|--------------------------------|
http://classicalguitartablature.blogspot.com/
E|-------------- 0---- 0 0--------|------------------ 2---------- 3|
B|-------- 1------ 1-- 1 1---- 4--|---- 4-- 4-- 5---------------- 0|
G|-------- 0------ 0-- 0-- 0-- 2--|---- 2-- 2-- 2------------ 2-- 0|
D|---- 2------ 2-------------- 4--|---- 4-- 4-- 4-------- 4--------|
A| 3-------------- 3--------------| 2------------ 2----------------|
E|--------------------------------|------------------------------ 0|
http://classicalguitartablature.blogspot.com/
E|------ 2-- 0--------------------|--------------------------------|
B|------ 0-- 3------ 3---------- 0|---------------------- 0--------|
G|---------- 4------ 4------ 4-- 0|-- 2 0---- 0-- 0-- 2------------|
D|-- 0------------------ 5------ 2|------ 2------ 2------------ 2--|
A|-------------- 5-------------- 4|---------------- 4--------------|
E|--------------------------------|--------------------------------|
http://classicalguitartablature.blogspot.com/
E|--------------------------------|--------------------------------|
B|--------------------------------|------ 0---- 3---- 0------------|
G|---- 0---- 0------------ 0------|-- 5-------- 5------------ 2----|
D|-------- 2-------- 2-------- 2--|---------------------- 4---- 0--|
A| 0------------ 0----------------| 5-------------- 5--------------|
E|--------------------------------|--------------------------------|
http://classicalguitartablature.blogspot.com/
E|-------- 3----------------------|-------- 3----------------------|
B|---------------- 0-- 1-- 3-- 1--|---------------- 0--------------|
G|---- 0---------- 0-- 0 0---- 0--|---------------- 0------ 2------|
D|---- 0------ 0-- 0-- 2-- 4-- 2--|---- 2------ 2------ 0------ 0--|
A|--------------------------------|--------------------------------|
E| 3------------------------------|---------------- 3------ 2------|
http://classicalguitartablature.blogspot.com/
E|------------ 0------------ 0----|--------------------------------|
B|------------------------------ 3|-- 1-- 0-------------- 0--------|
G| 0------ 0-------------- 0---- 0|-- 0-- 0---- 2------------ 2----|
D|---- 2------------ 2------------| 0 0-- 0------------ 4----------|
A|---------------- 3--------------|-------------- 5----------------|
E| 0---------------------------- 3|--------------------------------|
http://classicalguitartablature.blogspot.com/
E|------------ 0------ 0 0-- 0----|-- 3-- 2-- 0--------------------|
B|------------ 1------ 1 1-- 1-- 3|-- 3-- 3-- 3------ 3------------|
G| 0 0---- 0---------- 0 0-- 0-- 0|-- 0-- 0-- 2------ 2-------- 2--|
D| 2---------------------------- 0|---------------------- 4--------|
A|-------------- 3----------------|-------------- 5----------------|
E| 0---------------------------- 3|--------------------------------|
http://classicalguitartablature.blogspot.com/
E|------------ 0------ 0 0-- 0----|--------------------------------|
B|------------ 1------ 1 1-- 1-- 3|-- 1-- 0------------ 0----------|
G| 0 0---- 0---------- 0 0-- 0-- 0|-- 0-- 0-- 2---------- 2---- 0--|
D| 2------------------------------| 0 0-- 0-- 4--------------------|
A|-------------- 3----------------|---------------- 5--------------|
E| 0---------------------------- 3|--------------------------------|
http://classicalguitartablature.blogspot.com/
E|-------------------- 0-- 3-- 7--|-- 8-- 7-- 5------ 7-- 5-- 3----|
B|-------- 1---------- 1-- 1 8----|-- 8-- 8-- 5------ 5-- 5-- 0----|
G|-------- 0---------- 0-- 0-- 8--|---- 8 8-- 5------ 5-- 5--------|
D|---- 2------ 2------------------|--------------------------------|
A| 0-------------- 0--------------|-------------- 5----------------|
E|------------------------------ 8|------------------------------ 3|
http://classicalguitartablature.blogspot.com/
E|--------------------------------|------ 3------------------------|
B|------ 0------ 0-- 1---- 3 1----|---------------------- 1 0------|
G|------ 0------ 0-- 0-- 0-- 0----|-------------- 0------------ 0--|
D|-- 0------ 0------ 2---- 4 2----|-- 2------ 2-------- 2----------|
A|--------------------------------|--------------------------------|
E|--------------------------------|------------------------------ 3|
http://classicalguitartablature.blogspot.com/
E|-------- 3----------------------|-------- 3----------------------|
B|-------- 0---- 0---- 1-- 3-- 1--|-------------------- 1-- 1 0----|
G|---------------- 0-- 0-- 0-- 0--|---------------- 0---------- 0--|
D|---- 0------ 0-- 0-- 2---- 4 2--|---- 2------ 2------------------|
A|--------------------------------|--------------------------------|
E|--------------------------------|------------------------------ 3|
http://classicalguitartablature.blogspot.com/
E|--------------------------------|--------------------------------|
B| 0------------------------------|--------------------------------|
G| 0------------------------------|--------------------------------|
D| 0------------------------------|--------------------------------|
A|--------------------------------|--------------------------------|
E|--------------------------------|--------------------------------|
http://classicalguitartablature.blogspot.com/
0 com

To Be With You (BASIC)

Mr.Big's classic tune fingerstyle chord melody guitar BASIC arrangement played in the key of E. To Be With You- BASIC ARRANGEMENT played in the key of E
http://classicalguitartablature.blogspot.com/
E|-- 4 4---------- 4--------------| 2---- 2-- 4---- 2-- 0 0--------|
B|-- 5 5------ 7 5 5--------------| 2 5-- 2-- 2---- 0-- 0 0--------|
G|-- 6 6------ 4 4 4---- 4---- 4--| 2 2-- 2-------- 1-- 1 1------ 1|
D|------------ 6 6---- 6------ 6--|-- 2-------- 2-------------- 2--|
A| 4---- 4------------------------| 0------ 0----------------------|
E|---------------- 0------ 0------|---------------- 0------ 0------|
http://classicalguitartablature.blogspot.com/
E|-- 9------------ 4--------------| 2---- 2-- 4---------------- 4--|
B|-- 9 9---------- 5--------------| 2 5-- 2-- 2---- 7-- 5 5------ 7|
G|-- 9-- 9--11 9-- 4-- 4------ 4--| 2 2-- 2-------- 4-- 4 4--------|
D|------------------ 6-------- 6--|-- 2-------- 2-- 6-- 6 6-- 6----|
A|--------------------------------| 0------ 0----------------------|
E| 9---- 9-------- 0------ 0------|---------------- 0------ 0------|
http://classicalguitartablature.blogspot.com/
http://classicalguitartablature.blogspot.com/
E|---------- 4 2-- 0--------------| 2---- 2-- 4---- 2-- 0 0--------|
B| 5-------------- 0--------------| 2 5-- 2-- 2---- 0-- 0 0--------|
G| 2---- 2-------- 1---- 1---- 1--| 2 2-- 2-------- 1-- 1 1---- 1--|
D|---- 2-------------- 2------ 2--|-- 2-------- 2------------ 2----|
A| 0------ 0----------------------| 0------ 0----------------------|
E|---------------- 0------ 0------|---------------- 0------ 0------|
http://classicalguitartablature.blogspot.com/
E|--------------------------------|------------ 7------------------|
B|10 9-- 9-- 7----10 9-- 9 7------| 9 9-- 9-- 7 7---- 7-- 7--------|
G| 7---- 7-- 7-- 7 7 7-- 7-- 7-- 7| 8-- 8 8-- 8-- 8-- 8-- 8-- 9----|
D| 7 7-- 7-- 7---- 7 7-- 7-- 7----| 9 9-- 9-- 9------ 9-- 9--------|
A|--------------------------------|--------------------------------|
E|10----10--------10------10------| 7------ 7------ 7------ 7------|
http://classicalguitartablature.blogspot.com/
E|--------------------------------|--------------------------------|
B|---------- 5-- 2----------------|--------------------------------|
G| 1-- 2-- 4-- 4-- 2---- 2 4-- 4--|-------- 1-- 1------ 1---- 1----|
D| 2-- 4 6---- 6---- 2---- 2 2----| 4-- 4------ 2---- 2-------- 2--|
A|---------------- 0------ 0------| 2------ 2----------------------|
E| 0------ 0----------------------|---------------- 0---- 0--------|
http://classicalguitartablature.blogspot.com/
E|------------------------ 4---- 2|------------ 0------------------|
B|---------- 5---- 2--------------| 4---- 5---- 0------------------|
G| 1-- 2-- 4-- 4-- 2-- 2------ 2--| 2-- 2 2---- 1------ 1---- 1----|
D| 2-- 4 6---- 6------ 2---- 2----|---- 4 4---------- 2------ 2----|
A|---------------- 0------ 0------| 2------ 2----------------------|
E| 0------ 0----------------------|---------------- 0--------------|
http://classicalguitartablature.blogspot.com/
E|--------------------------------|--------------------------------|
B|---------- 5-- 2----------------|--------------------------------|
G| 1-- 2-- 4-- 4-- 2---- 2 4-- 4--|-------- 1-- 1------ 1---- 1----|
D| 2-- 4 6---- 6---- 2---- 2 2----| 4-- 4------ 2---- 2-------- 2--|
A|---------------- 0------ 0------| 2------ 2----------------------|
E| 0------ 0----------------------|---------------- 0---- 0--------|
http://classicalguitartablature.blogspot.com/
E|------------------------ 4---- 2|------------ 0------------------|
B|------------ 5-- 2--------------| 4---- 5---- 0------------------|
G| 1-- 2-- 4-- 4-- 2-- 2------ 2--| 2-- 2 2---- 1------ 1---- 1----|
D| 2-- 4 6---- 6------ 2---- 2----|---- 4 4---------- 2------ 2-- 2|
A|---------------- 0------ 0------| 2------ 2-------------------- 0|
E| 0------ 0----------------------|---------------- 0--------------|
http://classicalguitartablature.blogspot.com/
E|---------- 4 2-- 0-------- 0 2--| 4---------------- 4------------|
B| 0------------------------------| 5-- 7 7-- 5-- 7-- 5---- 5------|
G| 2---- 2---------------- 2------| 4-- 4 4-- 4-- 4------ 4---- 4--|
D|---- 2-------------- 2----------|---- 6 6-- 6-- 6-- 6------------|
A|--------------------------------| 4------------------------------|
E|--------------------------------|--------------------------------|
http://classicalguitartablature.blogspot.com/
E|------------------------------ 4|---- 4 4-- 2---- 7--------------|
B|10-- 9 9-- 7----10 9-- 9-- 7-- 2|---- 2 2-------- 7-- 9-- 7------|
G| 7-- 7 7------ 7 7 7-- 7------ 2|---- 2 2------ 2 8-- 8-- 8-- 9--|
D| 7-- 7 7---- 7-- 7-- 7 7-- 7----|------------ 2------ 9------ 9--|
A|--------------------------------| 0------ 0----------------------|
E|10------10------10----10--------|---------------- 7--------------|
http://classicalguitartablature.blogspot.com/
E|--------------------------------|------------ 3 0----------------|
B|--------------------------------| 0-- 1-- 3---- 1-------- 3------|
G|--------------------------------| 0------ 0------ 0-- 0------ 0 2|
D|--------------------------------|-- 0-- 0-- 0-------- 2---- 2----|
A|--------------------------------|---------------- 3------ 3---- 5|
E|--------------------------------| 3------ 3----------------------|
http://classicalguitartablature.blogspot.com/
E|--------------------------------|------------ 3-------- 7------ 5|
B|------ 0---- 0------------------| 0-- 1-- 3------------ 8------ 8|
G|---- 2 2---- 0-------- 0---- 0--| 0------ 0---- 9---- 9------ 9 5|
D|-- 4---------------- 0------ 0--|-- 0-- 0-- 0--------10----10----|
A|------ 5------------------------|------------------------------ 5|
E|---------------- 3------ 3------| 3------ 3------ 8------ 8------|
http://classicalguitartablature.blogspot.com/
E|------------ 3------------------|------------ 3 0----------------|
B|------ 8---- 3------------------| 0-- 1-- 3---- 1-------- 3------|
G|---- 5-- 5-- 0-------- 0---- 0--| 0------ 0------ 0-- 0------ 0 2|
D|-- 7---- 7---------- 0------ 0--|-- 0-- 0-- 0-------- 2---- 2----|
A|-------- 5----------------------|---------------- 3------ 3---- 5|
E|---------------- 3------ 3------| 3------ 3----------------------|
http://classicalguitartablature.blogspot.com/
E|--------------------------------|------------ 3-------- 7------ 5|
B|------ 0---- 0------------------| 0-- 1-- 3------------ 8------ 8|
G|---- 2 2---- 0-------- 0---- 0--| 0------ 0---- 9---- 9------ 9 5|
D|-- 4---------------- 0------ 0--|-- 0-- 0-- 0--------10----10----|
A|------ 5------------------------|------------------------------ 5|
E|---------------- 3------ 3------| 3------ 3------ 8------ 8------|
http://classicalguitartablature.blogspot.com/
E|------------ 3------------------|--------------------------------|
B|------ 8---- 3------------------|---------- 5-- 2----------------|
G|---- 5-- 5-- 0-------- 0---- 0--| 1-- 2-- 4-- 4-- 2---- 2 4-- 4--|
D|-- 7---- 7---------- 0------ 0--| 2-- 4 6---- 6---- 2---- 2 2----|
A|-------- 5----------------------|---------------- 0------ 0------|
E|---------------- 3------ 3------| 0------ 0----------------------|
http://classicalguitartablature.blogspot.com/
E|------------ 4------------------|------------------------ 4---- 2|
B|------------ 5---- 7 5 7-- 5----|------------ 5-- 2--------------|
G|-------- 1-- 4------ 4 4-- 4 4--| 1-- 2-- 4-- 4-- 2-- 2------ 2--|
D| 4-- 4-------------- 6 6---- 6--| 2-- 4 6---- 6------ 2---- 2----|
A| 2------ 2----------------------|---------------- 0------ 0------|
E|---------------- 0------ 0------| 0------ 0----------------------|
http://classicalguitartablature.blogspot.com/
E|---------------- 4--------------|--------------------------------|
B| 4---- 5---- 5-- 5-- 7-- 7-- 5--|------------ 5 2----------------|
G| 2-- 2 2---- 4-- 4-- 4-- 4-- 4--| 1-- 2-- 4-- 4-- 2---- 2 4-- 4--|
D|---- 4 4---- 6------ 6-- 6-- 6--| 2-- 4 6---- 6---- 2---- 2 2----|
A| 2------ 2----------------------|---------------- 0------ 0------|
E|---------------- 0------ 0------| 0------ 0----------------------|
http://classicalguitartablature.blogspot.com/
E|------------ 4---- 7------------|------------------------ 4------|
B|-------------------- 7 5--------|------------ 5-- 2--------------|
G|-------- 1-------------- 6-- 6 4| 1-- 2-- 4-- 4-- 2-- 2------ 2--|
D| 4-- 4------ 6---------- 6------| 2-- 4 6---- 6------ 2---- 2----|
A| 2------ 2------ 4------ 4------|---------------- 0------ 0------|
E|--------------------------------| 0------ 0----------------------|
http://classicalguitartablature.blogspot.com/
E| 2---------- 0------------------| 4------------------------------|
B| 4---- 5---- 0------------------| 5-- 7-- 7-- 5-- 5------ 2------|
G| 2-- 2 2---- 1------ 1---- 1----| 4-- 4-- 4-- 4-- 2------ 2------|
D|---- 4 4---------- 2------ 2----|---- 6-- 6-- 6-- 2-- 2-------- 2|
A| 2------ 2----------------------|-------------- 0----------------|
E|---------------- 0--------------| 0------------------------------|
http://classicalguitartablature.blogspot.com/
E|--------------------------------|-------------------------- 0----|
B|--------------------------------|--------------------------------|
G|-- 4----------------------------|--------------------------------|
D|-- 4---- 4---- 4 6--------------|------ 4-- 2--------------------|
A|--------------------------------|--------------------------------|
E|-- 7----------------------------|------ 0------------------------|
http://classicalguitartablature.blogspot.com/
0 com

Take On Me (BASIC)

A-Ha's tune fingerstyle chord melody guitar BASIC arrangement played in the key of A. Take On Me - A-Ha - BASIC ARRANGEMENT played in the key of A
http://classicalguitartablature.blogspot.com/
E| 2 2----------------------------|-------------------------- 7-- 5|
B|------ 3------------------------|---------------- 9-- 910------ 5|
G|------------ 4---- 4-------- 9--|---- 9------ 9-- 9-- 9 9------ 6|
D|---------------------------- 9--|---- 9------ 9-- 9-- 9 9--------|
A| 2------ 2------ 2------ 2------|--------------------------------|
E|--------------------------------| 0------ 0---------- 0-- 0------|
http://classicalguitartablature.blogspot.com/
E|---- 5 5------------------------|------------------------------ 2|
B|---- 5 5---- 5-------------- 7--|---- 7------ 7-- 5 5-- 7---- 5--|
G|---- 6 6---- 6------ 7------ 6--|---- 6------ 6-- 4 4-- 4---- 4--|
D|------------ 7------ 7------ 7--|---- 7------ 7-- 6 6-- 6---- 6--|
A| 0------ 0------ 0------ 0------| 5------ 5------ 4---- 4------ 2|
E|--------------------------------|--------------------------------|
http://classicalguitartablature.blogspot.com/
http://classicalguitartablature.blogspot.com/
E|-- 2----------------------------|-------------------------- 7-- 5|
B|------ 3------------------------|---------------- 9-- 910------ 5|
G|------------ 4------ 4------ 9--|---- 9------ 9-- 9-- 9 9------ 6|
D|---------------------------- 9--|---- 9------ 9-- 9-- 9 9--------|
A|------ 2------ 2------ 2--------|--------------------------------|
E|--------------------------------| 0------ 0---------- 0-- 0------|
http://classicalguitartablature.blogspot.com/
E|---- 5 5------------------------|--------------------------------|
B|---- 5 5---- 5-------------- 7--|---- 7------ 7-- 5 5-- 7---- 5 3|
G|---- 6 6---- 6------ 7------ 6--|---- 6------ 6-- 4 4-- 4---- 4 2|
D|------------ 7------ 7------ 7--|---- 7------ 7-- 6 6-- 6---- 6 4|
A| 0------ 0------ 0------ 0------| 5------ 5------ 4---- 4------ 2|
E|--------------------------------|--------------------------------|
http://classicalguitartablature.blogspot.com/
E|--------------------------------|--------------------------------|
B|---------- 3------ 2------------|---- 0------------------------ 2|
G|---------- 2------------ 4------|---- 1------ 1---- 1------ 1-- 2|
D|---------- 4---------------- 4--|---- 2------ 0-------------- 0--|
A|------------ 2------------------|--------------------------------|
E|--------------------------------| 0---------- 0---------- 0------|
http://classicalguitartablature.blogspot.com/
E|--------------------------------|--------------------------------|
B|---- 2------ 2------------------|---- 7------ 7-- 5------ 7-- 5--|
G|---- 2------ 2------ 2----------|---- 6------ 6-- 4------ 4-- 4--|
D| 2-- 2------ 2------ 2----------|---- 7------ 7-- 6------ 6-- 6--|
A| 0---------- 0-------------- 0--| 5---------- 5-- 4--------------|
E|--------------------------------|--------------------------------|
http://classicalguitartablature.blogspot.com/
E|--------------------------------|--------------------------------|
B| 3---------- 3------ 2-- 0------|---- 0------ 0------ 0----------|
G| 2---------- 2------ 2-- 2------|---- 1------ 1------ 1----------|
D| 0---------- 0------ 0-- 0------|---- 0------ 0------ 0----------|
A| 2---------- 2------------------|--------------------------------|
E|--------------------------------| 0---------- 0------------------|
http://classicalguitartablature.blogspot.com/
E|--------------------------------|--------------------------------|
B| 2-- 2------ 2------------------|-- 7------ 7---- 5---- 7---- 5 3|
G| 2-- 2------ 2------ 2----------|-- 6------ 6---- 4---- 4---- 4--|
D| 2-- 2------ 2------ 2----------|-- 7-------- 7-- 6---- 6---- 6--|
A| 0---------- 0------------ 0-- 5|------------ 5-- 4------ 4------|
E|--------------------------------|--------------------------------|
http://classicalguitartablature.blogspot.com/
E|--------------------------------|--------------------------------|
B|------------ 3------ 3-- 3------|--------------------------------|
G| 2---------- 2------ 2-- 2------|---- 1------ 1------ 1----------|
D| 4---------- 4------ 4-- 4------|---- 0------ 0------ 0------ 0--|
A| 2---------- 2------------------|--------------------------------|
E|------------------------------ 0|------------------------ 0------|
http://classicalguitartablature.blogspot.com/
E|--------------------------------|--------------------------------|
B|--------------------------------|--------------------------------|
G|------ 2-- 2-------- 2------ 2--|---- 1--------------------------|
D|------ 2---- 2------ 2------ 2--|------------ 4------ 2----------|
A|--------------------------------|--------------------------------|
E| 2------------ 2----------------| 0---- 0---------------- 0------|
http://classicalguitartablature.blogspot.com/
E|--------------------------------|------------------------------ 2|
B|--------------------------------| 5------------------------------|
G| 2-- 2------ 2------ 2------ 2 4|---- 4------ 4------ 4------ 4--|
D| 2-- 2------ 2------ 2------ 2 2|---- 2------ 2------ 2------ 2--|
A| 0------ 0------ 0------ 0------|--------------------------------|
E|--------------------------------| 4------ 4------ 4---- 4--------|
http://classicalguitartablature.blogspot.com/
E|--------------------------------|--------------------------------|
B| 2-- 2--------------------------| 5-- 5------ 7------ 5-------- 2|
G| 2-- 2------ 2------ 2------ 2--| 6---------- 6------ 6------ 6--|
D|---- 2------ 2------ 2------ 2--| 7-- 7------ 7------ 7------ 7--|
A|--------------------------------| 5------ 5------ 5---- 5--------|
E| 2------ 2------ 2------ 2------|--------------------------------|
http://classicalguitartablature.blogspot.com/
E|------------------------------ 4|-- 4-------------------------- 5|
B|---- 2-------------------- 0-- 5|-- 5----------------------------|
G| 2-- 2------ 2---- 2------------|-- 4-------- 4------ 4------ 4--|
D|---- 2------ 2---- 2------------|------------ 6------ 6------ 6--|
A| 0------ 0------ 0------ 0------|--------------------------------|
E|--------------------------------| 4------ 4------ 4------ 4------|
http://classicalguitartablature.blogspot.com/
E|--------------------------------|--------------------------------|
B| 2------------------------------| 5-- 5------ 7------ 5-------- 2|
G| 2---------- 2------ 2------ 2--| 6-- 6------ 6------ 6------ 6--|
D|---- 2------ 2------ 2------ 2--| 7-- 7------ 7------ 7------ 7--|
A|--------------------------------| 5------ 5------ 5--------------|
E| 2------ 2------ 2------ 2------|--------------------------------|
http://classicalguitartablature.blogspot.com/
E|------------------------------ 4|-- 4-------------------------- 5|
B|---- 2-------------------- 0-- 5|-- 5----------------------------|
G| 2-- 2------ 2---- 2------------|-- 4-------- 4------ 4------ 4--|
D|---- 2------ 2---- 2------------|------------ 6------ 6------ 6--|
A| 0------ 0------ 0------ 0------|--------------------------------|
E|--------------------------------| 4------ 4------ 4------ 4------|
http://classicalguitartablature.blogspot.com/
E|--------------------------------|------------ 9------------------|
B| 2------------------------------|--------12--12------12--10------|
G| 2---------- 2------ 2------ 2--|----11--11--11------11--11--11--|
D|---- 2------ 2------ 2------ 2--|12--12--------------12----------|
A|--------------------------------|--------------------------------|
E| 2------ 2------ 2------ 2------|10------10------10------10------|
http://classicalguitartablature.blogspot.com/
E|------12------------------------|--------------------------------|
B|10------10----------------------|--------------------------------|
G| 9------------------ 9------ 9--|---- 4------ 4------ 4------ 4--|
D|11--11------11------11------11--|---- 2------ 2------ 2------ 2--|
A| 0------ 0------ 0------ 0------|--------------------------------|
E|--------------------------------| 4------ 4------ 4------ 4------|
http://classicalguitartablature.blogspot.com/
E|--------------------------------|------------------------------ 2|
B|--------------------------------|--------------------------------|
G|---- 2------ 2------ 2------ 2--|---- 2------ 2------ 2------ 2--|
D|---- 2------ 2------ 2------ 2--|---- 4------ 4------ 2------ 2--|
A|--------------------------------| 5------ 5------ 4------ 4---- 2|
E| 2------ 2------ 2------ 2------|--------------------------------|
http://classicalguitartablature.blogspot.com/
E|-- 2----------------------------|-------------------------- 7-- 5|
B|------ 3------------------------|---------------- 9-- 910------ 5|
G|------------ 4------ 4------ 9--|---- 9------ 9-- 9-- 9 9------ 6|
D|---------------------------- 9--|---- 9------ 9-- 9-- 9 9--------|
A|------ 2------ 2------ 2--------|--------------------------------|
E|--------------------------------| 0------ 0---------- 0-- 0------|
http://classicalguitartablature.blogspot.com/
E|---- 5 5------------------------|------------------------------ 2|
B|---- 5 5---- 5-------------- 7--|---- 7------ 7-- 5 5-- 7---- 5--|
G|---- 6 6---- 6------ 7------ 6--|---- 6------ 6-- 4 4-- 4---- 4--|
D|------------ 7------ 7------ 7--|---- 7------ 7-- 6 6-- 6---- 6--|
A| 0------ 0------ 0------ 0------| 5------ 5------ 4---- 4------ 2|
E|--------------------------------|--------------------------------|
http://classicalguitartablature.blogspot.com/
E|-- 2----------------------------|-------------------------- 7-- 5|
B|------ 3------------------------|---------------- 9-- 910--------|
G|------------ 4------ 4------ 9--|---- 9------ 9-- 9-- 9 9--------|
D|---------------------------- 9--|---- 9------ 9-- 9-- 9 9--------|
A|------ 2------ 2------ 2--------|--------------------------------|
E|--------------------------------| 0------ 0---------- 0-- 0------|
http://classicalguitartablature.blogspot.com/
E|------------ 5---------- 5------|--------------------------------|
B| 5---------- 5---------- 5------|--------------------------------|
G| 2---------- 2---------- 2------|--------------------------------|
D|--------------------------------|--------------------------------|
A| 0---------- 0---------- 0------|--------------------------------|
E|--------------------------------|--------------------------------|
http://classicalguitartablature.blogspot.com/
0 com

Starlight (BASIC)

Muse's tune fingerstyle chord melody guitar BASIC arrangement played in the key of C. Starlight - Muse - BASIC ARRANGEMENT played in the key of C
http://classicalguitartablature.blogspot.com/
E|--------------------------------|--------------------------------|
B|-------- 1-------------- 1------|-------- 1---------- 1-- 1-- 1--|
G|-------- 0-------------- 0------|-------- 0---------- 0-- 0-- 0--|
D|-------- 2-------------- 2------|-------- 2---------- 2-- 2-- 2--|
A| 3-- 3-- 3-- 3-- 3-- 3-- 3-- 3--| 3-- 3-- 3-- 3-- 3-- 3-- 3-- 3--|
E|--------------------------------|--------------------------------|
http://classicalguitartablature.blogspot.com/
E|--------------------------------|--------------------------------|
B|-------- 1-------------- 1------|------ 1------------ 1 1-- 1----|
G|-------- 0------------ 0--------|------ 0---------- 0-- 0-- 0----|
D|-------- 2-------------- 2------|------ 2------------ 2 2-- 2----|
A| 3-- 3-- 3-- 3-- 3-- 3-- 3-- 3--| 3-- 3-- 3-- 3-- 3-- 3-- 3-- 3--|
E|--------------------------------|--------------------------------|
http://classicalguitartablature.blogspot.com/
http://classicalguitartablature.blogspot.com/
E| 0------------------ 0----------|--------------------------------|
B|-------- 1------------------ 6--|-------------------- 6-- 5------|
G|---------------- 0--------------|---- 7-------------------- 7----|
D|--------------------------------|------------ 7------------------|
A| 3-- 3-- 3-- 3-- 3-- 3-- 3------| 5-- 5-- 5-- 5-- 5-- 5-- 5-- 5--|
E|--------------------------------|--------------------------------|
http://classicalguitartablature.blogspot.com/
E| 0------------------ 0------ 1--|------------------ 1-- 0--------|
B| 1------ 1------------------ 1--|---- 1------------ 1-- 1---- 3--|
G| 2------ 2------ 2---------- 2--|---- 2------ 2---- 2-- 2---- 2--|
D|-------- 2------ 2--------------|---- 3------ 3-------------- 3--|
A| 0-- 0-- 0-- 0-- 0-- 0-- 0------|--------------------------------|
E|--------------------------------| 1-- 1-- 1-- 1-- 1-- 1-- 1-- 1--|
http://classicalguitartablature.blogspot.com/
E| 0------------------ 0----------|--------------------------------|
B|-------- 1------------------ 6--|-------------------- 6-- 5------|
G|---------------- 0--------------|---- 7-------------------- 7----|
D|--------------------------------|------------ 7------------------|
A| 3-- 3-- 3-- 3-- 3-- 3-- 3------| 5-- 5-- 5-- 5-- 5-- 5-- 5-- 5--|
E|--------------------------------|--------------------------------|
http://classicalguitartablature.blogspot.com/
E| 0------------------ 0------ 1--|------------------ 1-- 0--------|
B| 1------ 1------------------ 1--|---- 1------------ 1-- 1---- 3--|
G| 2------ 2------ 2---------- 2--|---- 2------ 2---- 2-- 2---- 2--|
D|-------- 2------ 2--------------|---- 3------ 3-------------- 3--|
A| 0-- 0-- 0-- 0-- 0-- 0-- 0------|--------------------------------|
E|--------------------------------| 1-- 1-- 1-- 1-- 1-- 1-- 1-- 1--|
http://classicalguitartablature.blogspot.com/
E|--------------------------------|--------------------------------|
B| 3---------- 1-- 1--------------|-------------------- 5-------- 3|
G| 0---------- 0-- 0--------------|---- 7-- 7-- 5-- 7------ 7-- 5--|
D| 2---------- 2-- 2--------------|---- 7-- 7-- 7-- 7------ 7-- 7--|
A| 3-- 3-- 3-- 3-- 3-- 3-- 3-- 3--| 5-- 5-- 5-- 5-- 5-- 5-- 5-- 5--|
E|--------------------------------|--------------------------------|
http://classicalguitartablature.blogspot.com/
E|--------------------------------|------------------ 0------------|
B|------------ 1-- 1--------------|---- 3------ 1-- 3-- 3 3---- 1 3|
G| 2---------- 2-- 2--------------|---- 2------ 2-- 2 2---- 2-- 2 0|
D| 2---------- 2-- 2--------------|---- 3------ 3-- 3------ 3-- 3 2|
A| 0-- 0-- 0-- 0-- 0-- 0-- 0-- 0--|--------------------------------|
E|--------------------------------| 1-- 1-- 1-- 1-- 1------ 1-- 1--|
http://classicalguitartablature.blogspot.com/
E|------------ 0-- 0--------------|------------------------------ 0|
B|--------------------------------|---- 5---------- 5-- 6-- 5------|
G|--------------------------------|---- 7------ 7-- 7-- 7-- 7-- 7--|
D|--------------------------------|---- 7------ 7-- 7-- 7-- 7-- 7--|
A| 3-- 3-- 3-- 3-- 3-- 3-- 3-- 3 5|---- 5-- 5-- 5-- 5-- 5-- 5-- 5--|
E|--------------------------------|--------------------------------|
http://classicalguitartablature.blogspot.com/
E|-------- 0-- 1-- 0--------------|--------------------------------|
B| 1------ 1-- 1-- 1-- 3-- 1-- 1--|--------------------------------|
G| 2------ 2-- 2-- 2-- 2-- 2-- 2--|--------------------------------|
D|-------------------- 2-- 2-- 3--|--------------------------------|
A| 0-- 0-- 0-- 0-- 0-- 0-- 0------|--------------------------------|
E|--------------------------------| 1-- 1-- 1-- 1-- 1-- 1-- 1-- 1--|
http://classicalguitartablature.blogspot.com/
E| 3------------------------------|---------- 8-------------- 0----|
B| 1------------------------------|---- 6---- 6------ 6------ 1----|
G| 0------------------------------|---- 5---- 5------ 5-------- 2--|
D|--------------------------------|---- 7------------ 7------------|
A| 3-- 3-- 3-- 3-- 3-- 3-- 3-- 3--| 5-- 5-- 5-- 5-- 5-- 5-- 5------|
E|--------------------------------|--------------------------------|
http://classicalguitartablature.blogspot.com/
E|--------------------------------|---- 1------ 0-- 1-- 0-- 1-- 3--|
B|--------------------------------|---- 1------ 1-- 1-- 1-- 1-- 1--|
G|-------- 2----------------------|---- 2------ 2-- 2-- 2-- 2-- 0--|
D|-------- 2----------------------|--------------------------------|
A| 0-- 0-- 0-- 0-- 0-- 0-- 0-- 0--|--------------------------------|
E|--------------------------------| 1-- 1-- 1-- 1-- 1-- 1-- 1------|
http://classicalguitartablature.blogspot.com/
E|--------------------------------|---------- 8-------------- 0----|
B|--------------------------------|---- 6---- 6------ 6------ 1----|
G|--------------------------------|---- 5---- 5------ 5-------- 2--|
D|--------------------------------|---- 7------------ 7------------|
A| 3-- 3-- 3-- 3-- 3-- 3-- 3-- 3--| 5-- 5-- 5-- 5-- 5-- 5-- 5------|
E|--------------------------------|--------------------------------|
http://classicalguitartablature.blogspot.com/
E|--------------------------------|--------------------------------|
B|--------------------------------|--------------------------------|
G|-------- 2----------------------|-------- 2---------- 2-- 2-- 2--|
D|-------- 2----------------------|-------- 3---------- 3-- 3-- 3--|
A| 0-- 0-- 0-- 0-- 0-- 0-- 0-- 0--|--------------------------------|
E|--------------------------------| 1-- 1-- 1-- 1-- 1-- 1-- 1-- 1--|
http://classicalguitartablature.blogspot.com/
E|--------------------------------|---------------------------- 0--|
B|------------ 6------ 6------ 6--|---- 6------ 5------ 6------ 0--|
G|---- 5------ 5------ 5------ 4--|---- 4------ 4------ 4------ 0--|
D|---- 3------ 3------ 3------ 3--|---- 3------ 3------ 3----------|
A| 5---------- 5------------------|--------------------------------|
E|---------------------------- 3--|------------ 3------------------|
http://classicalguitartablature.blogspot.com/
E|---- 0------ 0------ 0------ 1--|---- 0--------------------------|
B|---- 0------ 0------ 0------ 1--|---- 1------ 3------ 1------ 3--|
G|---- 0------ 0------ 0------ 0--|---- 0------ 0------ 0------ 3--|
D|--------------------------------|------------ 2------ 2------ 3--|
A|--------------------------------| 0-------------- 0--------------|
E| 0------------ 0----------------|--------------------------------|
http://classicalguitartablature.blogspot.com/
E|--------------------------------|--------------------------------|
B|-------- 3---------- 5-- 3-- 1--|------------------------ 1-- 3--|
G|-------- 3---------- 3-- 3-- 2--|-------- 2---------- 2------ 3--|
D|------------ 3------ 3-- 3-- 3--|------------ 3-------------- 3--|
A|--------------------------------|--------------------------------|
E| 6-------------- 6--------------| 1-------------- 1--------------|
http://classicalguitartablature.blogspot.com/
E|--------------------------------|--------------------------------|
B|-------------------- 3------ 5--|--------------------------------|
G|------------ 3------ 3------ 4--|------------ 4------------------|
D|-------- 3------------------ 2--|-------- 2----------------------|
A|--------------------------------|--------------------------------|
E| 6-------------- 6--------------| 4------------------------------|
http://classicalguitartablature.blogspot.com/
E|---------------- 0-- 0------ 0--|-- 0-------------- 0---------- 1|
B|------ 1---- 1-------------- 0--|-- 0---------- 3-------------- 1|
G|-------- 2------------------ 0--|---------- 0------------------ 2|
D|---- 2--------------------------|------ 2-------------- 2--------|
A| 0------------------------------|--------------------------------|
E|--------------------------------| 0------------------------------|
http://classicalguitartablature.blogspot.com/
E|------------ 1---- 3---- 1---- 0|--------------------------------|
B|--------------------------------| 1---------- 1------------------|
G|-------- 2----------------------| 0------ 0------ 0------ 0------|
D|---- 3--------------------------|---- 2---------- 2------ 0------|
A|--------------------------------| 3-------------- 3------ 2------|
E| 1------------------------------|--------------------------------|
http://classicalguitartablature.blogspot.com/
E|---------------- 0-- 0------ 0--|-- 0-------------- 0---------- 1|
B|------ 1---- 1-------------- 0--|-- 0---------- 3-------------- 1|
G|-------- 2------------------ 0--|---------- 0------------------ 2|
D|---- 2--------------------------|------ 2-------------- 2--------|
A| 0------------------------------|--------------------------------|
E|--------------------------------| 0------------------------------|
http://classicalguitartablature.blogspot.com/
E|------------ 1---- 3---- 1---- 0|--------------------------------|
B|--------------------------------| 1---------- 1------------------|
G|-------- 2----------------------| 0------ 0------ 0------ 0------|
D|---- 3--------------------------|---- 2---------- 2------ 0------|
A|--------------------------------| 3-------------- 3------ 2------|
E| 1------------------------------|--------------------------------|
http://classicalguitartablature.blogspot.com/
E|---------------- 0-- 0------ 0--|---- 0------------ 0-------- 1--|
B|-------- 1------ 1-- 1------ 0--|---- 0------ 3------ 0------ 1--|
G|-------- 2------ 2-- 2------ 0--|---- 0---- 0-------- 0------ 2--|
D|-------- 2----------------------|--------------------------------|
A| 0-- 0-- 0-- 0-- 0-- 0-- 0------|--------------------------------|
E|---------------------------- 0--| 0-- 0-- 0-- 0------ 0-- 0------|
http://classicalguitartablature.blogspot.com/
E|-------------------- 3 1------ 0|--------------------------------|
B|------ 1------------ 1 1------ 1|---------------- 1---- 3--------|
G|------ 2------------ 2-------- 0|---------------- 0------ 0------|
D|------ 3------------------------|---------------- 2------ 0------|
A|--------------------------------| 3-- 3-- 3-- 3-- 3------ 2------|
E| 1-- 1-- 1-- 1-- 1-- 1-- 1-- 1--|--------------------------------|
http://classicalguitartablature.blogspot.com/
E|---------------- 0-- 0------ 0--|---- 0------------ 0------ 1----|
B|-------- 1------ 1-- 1------ 0--|---- 0------ 3------ 0---- 1----|
G|-------- 2------ 2-- 2------ 0--|---- 0---- 0-------- 0---- 2----|
D|-------- 2----------------------|--------------------------------|
A| 0-- 0-- 0-- 0-- 0-- 0-- 0------|--------------------------------|
E|---------------------------- 0--| 0-- 0-- 0-- 0------ 0-- 0------|
http://classicalguitartablature.blogspot.com/
E|-------------------- 1------ 3--|--------------------------------|
B|------ 1------------ 1------ 0--|-------- 0------ 0--------------|
G|-------- 2---------- 2------ 0--|-------- 0------ 0--------------|
D|-------- 3----------------------|-------- 0------ 0--------------|
A|--------------------------------|--------------------------------|
E| 1-- 1-- 1-- 1-- 1------ 1-- 3--| 3-- 3-- 3-- 3-- 3--------------|
http://classicalguitartablature.blogspot.com/
E| 3------------------------------|---------- 8-------------- 0----|
B| 1------------------------------|---- 6---- 6------ 6------ 1----|
G| 0------------------------------|---- 5---- 5------ 5-------- 2--|
D|--------------------------------|---- 7------------ 7------------|
A| 3-- 3-- 3-- 3-- 3-- 3-- 3-- 3--| 5-- 5-- 5-- 5-- 5-- 5-- 5------|
E|--------------------------------|--------------------------------|
http://classicalguitartablature.blogspot.com/
E|--------------------------------|---- 1------ 0-- 1-- 0-- 1-- 3--|
B|--------------------------------|---- 1------ 1-- 1-- 1-- 1-- 1--|
G|-------- 2----------------------|---- 2------ 2-- 2-- 2-- 2-- 0--|
D|-------- 2----------------------|--------------------------------|
A| 0-- 0-- 0-- 0-- 0-- 0-- 0-- 0--|--------------------------------|
E|--------------------------------| 1-- 1-- 1-- 1-- 1-- 1-- 1------|
http://classicalguitartablature.blogspot.com/
E|--------------------------------|---------- 8-------------- 0----|
B|--------------------------------|---- 6---- 6------ 6------ 1----|
G|--------------------------------|---- 5---- 5------ 5-------- 2--|
D|--------------------------------|---- 7------------ 7------------|
A| 3-- 3-- 3-- 3-- 3-- 3-- 3-- 3--| 5-- 5-- 5-- 5-- 5-- 5-- 5------|
E|--------------------------------|--------------------------------|
http://classicalguitartablature.blogspot.com/
E|--------------------------------|---- 1------ 0-- 1-- 0-- 1------|
B|--------------------------------|---- 1------ 1-- 1-- 1-- 1------|
G|-------- 2----------------------|---- 2------ 2-- 2-- 2-- 2------|
D|-------- 2----------------------|------------------------------ 2|
A| 0-- 0-- 0-- 0-- 0-- 0-- 0-- 0--|------------------------------ 3|
E|--------------------------------| 1-- 1-- 1-- 1-- 1-- 1-- 1------|
http://classicalguitartablature.blogspot.com/
E|-- 3----------------------------|--------------------------------|
B| 1------------------------------|--------------------------------|
G| 0------------------------------|--------------------------------|
D|--------------------------------|--------------------------------|
A|--------------------------------|--------------------------------|
E|--------------------------------|--------------------------------|
http://classicalguitartablature.blogspot.com/
0 com

Sweet Dreams (BASIC)

Eurythmics' tune fingerstyle chord melody guitar BASIC arrangement played in the key of Em. Sweet Dreams - Eurythmics - BASIC ARRANGEMENT played in the key of Em
http://classicalguitartablature.blogspot.com/
E|--------------------------------|--------------------------------|
B|--------------------------------|--------------------------------|
G|--------------------------------|--------------------------------|
D|--------------------------------|--------------------------------|
A|-------- 7-- 7--10--10-- 7 7----|------------ 7-------------- 7--|
E| 0-- 0--------------------------| 8------ 8------ 7-- 7--10------|
http://classicalguitartablature.blogspot.com/
E|--------------------------------|--------------------------------|
B|--------------------------------|--------------------------------|
G|--------------------------------|--------------------------------|
D|--------------------------------|--------------------------------|
A|-------- 7-- 7--10--10-- 7-- 7--|---------- 7---------------- 7--|
E| 0-- 0--------------------------| 8-- 8 8------ 7---- 7--10------|
http://classicalguitartablature.blogspot.com/
http://classicalguitartablature.blogspot.com/
E|--------------------------------|--------------------------------|
B|------ 8------ 8-------------- 8|-- 8------ 7------------------ 8|
G|-------- 9------ 9---- 9------ 9|-- 9----------------------------|
D|--------------------------------|1010----------------------------|
A|-------- 7-- 7--1010---- 7-- 7--|------------ 7-------------- 7--|
E| 0-- 0--------------------------| 8-- 8-- 8------ 7-- 7--10------|
http://classicalguitartablature.blogspot.com/
E|--------------------------------|--------------------------------|
B|-- 8------ 8--------------------| 8--10------ 7------------------|
G|------ 9-------------- 9--------| 9-- 9------ 8-------------- 9--|
D|--------------------------------|10--10------ 9------------------|
A|------ 7-- 7----10--10-- 7-- 7--|------------ 7-------------- 7--|
E| 0 0----------------------------| 8-- 8-- 8------ 7-- 7--10------|
http://classicalguitartablature.blogspot.com/
E|--------------------------------|--------------------------------|
B| 8 8------ 8---------- 8--------| 8--10---- 7--------------------|
G|------ 9------------------ 9----| 9-- 9--------------------------|
D|--------------------------------|10--10--------------------------|
A|-------- 7-- 7--1010-- 7---- 7--|------------ 7-------------- 7--|
E| 0-- 0--------------------------| 8-- 8-- 8------ 7-- 7--10------|
http://classicalguitartablature.blogspot.com/
E|--------------------------------|--------------------------------|
B| 8-------- 8--------------------| 8 8----10-- 8------ 7----------|
G|------ 9---------- 9------------| 9 9---- 9-- 8------ 8----------|
D|--------------------------------|10--10--10-- 7------ 7----------|
A|------ 7---- 7--1010-- 7-- 7----|------------ 7-------------- 7--|
E| 0-- 0--------------------------| 8-- 8-- 8------ 7-- 7--10------|
http://classicalguitartablature.blogspot.com/
E|--------------------------------|--------------------------------|
B| 8 8------------ 8-- 8------ 8--|--------------------------------|
G|------ 9-------------- 9---- 9--|---- 9--------------------------|
D|----------------------------10--|----10--------------------------|
A|-------- 7-- 7--10--10-- 7-- 7--|------------ 7------------ 7----|
E| 0-- 0--------------------------| 8-- 8-- 8------ 7-- 7--10------|
http://classicalguitartablature.blogspot.com/
E|--------------------------------|--------------------------------|
B| 8 8------------ 8-- 8------ 8--|----10------ 8------ 7----------|
G|------ 9-------------- 9---- 9--|-- 9-------- 8------ 8----------|
D|----------------------------10--|--10-------- 7------ 7----------|
A|-------- 7-- 7--10--10-- 7-- 7--|------------ 7-------------- 7--|
E| 0-- 0------------------------ 8|---- 8 8-------- 7-- 7--10------|
http://classicalguitartablature.blogspot.com/
E|--------------------------------|--------------------------------|
B| 8 8------------ 8-- 8------ 8--|--------------------------------|
G|------ 9-------------- 9---- 9--|---- 9--------------------------|
D|----------------------------10--|----10--------------------------|
A|-------- 7-- 7--10--10-- 7-- 7--|------------ 7------------ 7----|
E| 0-- 0--------------------------| 8-- 8-- 8------ 7-- 7--10------|
http://classicalguitartablature.blogspot.com/
E|--------------------------------|--------------------------------|
B| 8 8------------ 8-- 8------ 8--|----10------ 8------ 7----------|
G|------ 9-------------- 9---- 9--|-- 9-------- 8------ 8----------|
D|----------------------------10--|--10-------- 7------ 7----------|
A|-------- 7-- 7--10--10-- 7-- 7--|------------ 7-------------- 7--|
E| 0-- 0------------------------ 8|---- 8 8-------- 7-- 7--10------|
http://classicalguitartablature.blogspot.com/
E|--------------------------------|------------------ 7------------|
B| 8------------------ 8------ 7--|---- 7------ 7---- 7--10-- 8--10|
G| 9------------------ 9------ 8--|---- 8------ 8---- 8------ 8-- 7|
D| 9-------------- 9-- 9------ 7--|---- 7------ 7-------- 7-- 7-- 9|
A|--------------------------------|--------------------------------|
E| 8---------- 8------------------| 7------------ 7----------------|
http://classicalguitartablature.blogspot.com/
E|-------------------------- 5----|--------------------------------|
B|------------ 8------ 8---- 5----|-- 8-- 5-- 5-------- 5---- 5-- 8|
G|------------ 7---- 7-------- 6--|-- 6-- 6-- 6-------- 6---- 6-- 9|
D|------------ 9------ 9----------|-- 5-- 5-- 5-------- 5------ 5 9|
A|--------------------------------|---------------- 5--------------|
E| 0---------- 0------------------| 5------------------------------|
http://classicalguitartablature.blogspot.com/
E|--------------------------------|--------------------------------|
B|------------ 8------ 8------ 7--|---- 7------ 7---------------- 8|
G|---------- 9-------- 9------ 8--|---- 8------ 8-------- 7-- 9-- 7|
D|------------ 9------ 9------ 7--|---- 7------ 7---- 9---------- 5|
A|--------------------------------|--------------------------------|
E| 8-------------- 8--------------| 7-------------- 7--------------|
http://classicalguitartablature.blogspot.com/
E|--------------------------------|--------------------------------|
B|---- 5-- 5-- 5-- 8 8-- 5------ 8|---- 5-- 5-- 5-------- 5------ 8|
G|-- 7---- 7-- 7-- 7 7-- 7--------| 6-- 6-- 6-- 6-- 7 7---------- 7|
D|---- 5-- 5-- 5-- 5-- 5 5--------| 5-- 5-- 5-- 5-- 5 5---------- 5|
A|--------------------------------| 0------------------------------|
E| 0------------------------------|--------------------------------|
http://classicalguitartablature.blogspot.com/
E|--------------------------------|------------------------------ 7|
B|---- 5-- 5-- 5-- 8 8-- 5------ 8|---- 5-- 5-- 5-------- 5------ 8|
G|-- 7---- 7-- 7-- 7 7-- 7--------| 6-- 6-- 6-- 6-- 7 7---------- 7|
D|---- 5-- 5-- 5-- 5-- 5 5--------| 5-- 5-- 5-- 5-- 5 5------------|
A|--------------------------------| 0------------------------------|
E| 0------------------------------|--------------------------------|
http://classicalguitartablature.blogspot.com/
E|-------------- 7-- 7---------- 7|------------------------------ 7|
B|-- 8---- 8-- 8 8---- 8 8------ 5|---- 8-- 8 8-- 7-- 7 8-------- 8|
G|-- 7---- 7-- 7-- 7 7-- 7------ 6|---- 6-- 6 6-- 6-- 6 6-------- 7|
D|-- 9---- 9-- 9-------- 9--------|---- 5-- 5 5---- 5 5-- 5--------|
A|--------------------------------| 0------------------------------|
E| 0------------------------------|--------------------------------|
http://classicalguitartablature.blogspot.com/
E|-------------- 7-- 7---------- 7|--------------------------------|
B|-- 8---- 8-- 8 8---- 8 8------ 8|---- 8-- 8-- 8-------- 8-- 7----|
G|-- 7---- 7-- 7-- 7 7-- 7------ 6|---- 6-- 6-- 6---- 7 9---- 9 7 9|
D|-- 9---- 9-- 9-------- 9--------|---- 5-- 5-- 5------------------|
A|--------------------------------| 0------------------------------|
E| 0------------------------------|--------------------------------|
http://classicalguitartablature.blogspot.com/
E|--------------------------------|------------------ 7------------|
B|--------------------------------| 8----------10----10------------|
G|--------------------------------| 9---------------- 8--12-- 9----|
D| 9------------------------------|10-------------------------- 9--|
A|-------- 7-- 7--10--10-- 7-- 7--|------------ 7------------------|
E| 0-- 0--------------------------| 8-- 8-- 8------ 7-- 7--10--12 0|
http://classicalguitartablature.blogspot.com/
E|--------------------------------|------------------ 7--10----12--|
B|--------------------------------|------------------ 7------------|
G|------------------------------ 9|------------------ 8------------|
D|--------------------------------|10------------------------------|
A|-------- 7-- 7--10--10-- 7 7----|------------ 7------------------|
E|---- 0--------------------------| 8-- 8-- 8------ 7-- 710----12--|
http://classicalguitartablature.blogspot.com/
E|--------------------------------|--------------------------------|
B|--------------------------------|----------------11--10----------|
G|------------------------------ 9|---------------- 8-- 812-- 9----|
D|--------------------------------|10-------------- 7-- 7------ 9--|
A|-------- 7-- 7--10--10-- 7-- 7--|------------ 7------------------|
E| 0-- 0--------------------------| 8-- 8-- 8------ 7-- 7--10--12 0|
http://classicalguitartablature.blogspot.com/
E|--------------------------------|--------------------------------|
B|--------------------------------|--------------------------------|
G|------------------------------ 9|---------------- 8--------------|
D|--------------------------------|10-------------- 7--------------|
A|-------- 7-- 7--10--10-- 7 7----|------------ 7-------------- 7--|
E|---- 0--------------------------| 8-- 8-- 8------ 7-- 7--10------|
http://classicalguitartablature.blogspot.com/
E|--------------------------------|--------------------------------|
B| 8 8------------ 8-- 8------ 8--|--------------------------------|
G|------ 9-------------- 9---- 9--|---- 9--------------------------|
D|----------------------------10--|----10--------------------------|
A|-------- 7-- 7--10--10-- 7-- 7--|------------ 7------------ 7----|
E| 0-- 0--------------------------| 8-- 8-- 8------ 7-- 7--10------|
http://classicalguitartablature.blogspot.com/
E|--------------------------------|--------------------------------|
B| 8 8------------ 8-- 8------ 8--|----10------ 8------ 7----------|
G|------ 9-------------- 9---- 9--|-- 9-------- 8------ 8----------|
D|----------------------------10--|--10-------- 7------ 7----------|
A|-------- 7-- 7--10--10-- 7-- 7--|------------ 7-------------- 7--|
E| 0-- 0------------------------ 8|---- 8 8-------- 7-- 7--10------|
http://classicalguitartablature.blogspot.com/
E|--------------------------------|--------------------------------|
B| 8 8------------ 8-- 8------ 8--|--------------------------------|
G|------ 9-------------- 9---- 9--|---- 9--------------------------|
D|----------------------------10--|----10--------------------------|
A|-------- 7-- 7--10--10-- 7-- 7--|------------ 7------------ 7----|
E| 0-- 0--------------------------| 8-- 8-- 8------ 7-- 7--10------|
http://classicalguitartablature.blogspot.com/
E|--------------------------------|--------------------------------|
B| 8 8------------ 8-- 8------ 8--|----10------ 8------ 7----------|
G|------ 9-------------- 9---- 9--|-- 9-------- 8------ 8----------|
D|----------------------------10--|--10-------- 7------ 7----------|
A|-------- 7-- 7--10--10-- 7-- 7--|------------ 7-------------- 7--|
E| 0-- 0------------------------ 8|---- 8 8-------- 7-- 7--10------|
http://classicalguitartablature.blogspot.com/
E|--------------------------------|--------------------------------|
B|------ 8------ 8-------------- 8|-- 8------ 7------------------ 8|
G|-------- 9------ 9---- 9------ 9|-- 9----------------------------|
D|--------------------------------|1010----------------------------|
A|-------- 7-- 7--1010---- 7-- 7--|------------ 7-------------- 7--|
E| 0-- 0--------------------------| 8-- 8-- 8------ 7-- 7--10------|
http://classicalguitartablature.blogspot.com/
E|--------------------------------|--------------------------------|
B|-- 8------ 8--------------------| 8--10------ 7------------------|
G|------ 9-------------- 9--------| 9-- 9------ 8-------------- 9--|
D|--------------------------------|10--10------ 9------------------|
A|------ 7-- 7----10--10-- 7-- 7--|------------ 7-------------- 7--|
E| 0 0----------------------------| 8-- 8-- 8------ 7-- 7--10------|
http://classicalguitartablature.blogspot.com/
E|--------------------------------|--------------------------------|
B| 8 8------ 8---------- 8--------| 8--10---- 7--------------------|
G|------ 9------------------ 9----| 9-- 9--------------------------|
D|--------------------------------|10--10--------------------------|
A|-------- 7-- 7--1010-- 7---- 7--|------------ 7-------------- 7--|
E| 0-- 0--------------------------| 8-- 8-- 8------ 7-- 7--10------|
http://classicalguitartablature.blogspot.com/
E|--------------------------------|--------------------------------|
B| 8-------- 8--------------------| 8 8----10-- 8------ 7----------|
G|------ 9---------- 9------------| 9 9---- 9-- 8------ 8----------|
D|--------------------------------|10--10--10-- 7------ 7----------|
A|------ 7---- 7--1010-- 7-- 7----|------------ 7-------------- 7--|
E| 0-- 0--------------------------| 8-- 8-- 8------ 7-- 7--10------|
http://classicalguitartablature.blogspot.com/
E|--------------------------------|--------------------------------|
B|--------------------------------|--------------------------------|
G|--------------------------------|--------------------------------|
D|--------------------------------|--------------------------------|
A|-------- 7-- 7--10--10-- 7 7----|------------ 7-------------- 7--|
E| 0-- 0--------------------------| 8------ 8------ 7-- 7--10------|
http://classicalguitartablature.blogspot.com/
E|--------------------------------|--------------------------------|
B|--------------------------------|--------------------------------|
G|--------------------------------|--------------------------------|
D|--------------------------------|--------------------------------|
A|-------- 7-- 7--10--10-- 7-- 7--|---------- 7---------------- 7--|
E| 0-- 0--------------------------| 8-- 8 8------ 7---- 7--10------|
http://classicalguitartablature.blogspot.com/
E|--------------------------------|--------------------------------|
B| 2------------------------------|--------------------------------|
G| 0------------------------------|--------------------------------|
D| 2------------------------------|--------------------------------|
A|--------------------------------|--------------------------------|
E| 0------------------------------|--------------------------------|
http://classicalguitartablature.blogspot.com/