To celebrate the anniversary, I am giving you (finally...) : iPhone LickByNeck !!!!!!

I Don't Wanna Miss A Thing (BASIC)

Aerosmith's tune fingerstyle chord melody guitar BASIC arrangement played in the key of D. I Don't Wanna Miss A Thing - Aerosmith - BASIC ARRANGEMENT played in the key of D
http://classicalguitartablature.blogspot.com/
E|--------------------------------|--------------------------------|
B| 5------ 5---- 5------ 5------ 5|------ 5------ 7-- 5-------- 5--|
G| 4------ 4---- 4------ 4------ 4|------ 4------------ 7-- 6 7----|
D| 4-- 4------ 4---- 4------ 4----|-- 4------ 4--------------------|
A|---------------- 4--------------|--------------------------------|
E| 7---------------------------- 0|--------------------------------|
http://classicalguitartablature.blogspot.com/
E|--------------------------------|--------------------------------|
B|------------------------------ 5|------ 5------ 7-- 5------ 5----|
G| 4------ 4---- 4------ 4------ 4|------ 4------------ 7 6 7------|
D| 4-- 4---- 4------ 4------ 4----|-- 4------ 4--------------------|
A|-------------- 4----------------|--------------------------------|
E| 7---------------------------- 0|--------------------------------|
http://classicalguitartablature.blogspot.com/
http://classicalguitartablature.blogspot.com/
E|--------------------------------|--------------------------------|
B|------------------------------ 5|------ 5------ 7-- 5------ 5----|
G| 4------ 4---- 4------ 4------ 4|------ 4------------ 7 6 7---- 4|
D| 4-- 4---- 4------ 4------ 4----|-- 4------ 4--------------------|
A|-------------- 4----------------|--------------------------------|
E| 7---------------------------- 0|--------------------------------|
http://classicalguitartablature.blogspot.com/
E|--------------------------------|--------------------------------|
B|------------------------------ 5|-------------- 5----------------|
G|-------- 4---- 4------ 4------ 4|------ 4------------------ 2 2--|
D| 4-- 4---- 4-------- 4---- 4----|---- 4---- 4------------------ 4|
A|-------------- 4----------------|------------------------------ 5|
E| 7---------------------------- 0|--------------------------------|
http://classicalguitartablature.blogspot.com/
E|---------------------- 2--------|--------------------------------|
B|------ 0------------------ 3----| 5-- 3------ 3------------ 3 3--|
G|-- 2---- 2-------- 2------------| 2-- 2---- 2---------- 2--------|
D|---------- 4---- 4------------ 4|-------- 4-------- 4------------|
A|-------------- 4-------------- 2|--------------------------------|
E|--------------------------------|-------------- 5-------------- 3|
http://classicalguitartablature.blogspot.com/
E|--------------------------------|------------ 2------------------|
B| 0-------------- 0-------- 3 3 0|---------------- 5-------- 3 3--|
G|-- 2 2------ 2------ 2-------- 0|-- 2 2-- 2------------ 2-- 2 2--|
D|---------- 4---------- 0------ 0|-------------------- 2---- 2 2--|
A|--------------------------------|-------------- 0----------------|
E|-------------- 2-------------- 0|--------------------------------|
http://classicalguitartablature.blogspot.com/
E| 0-------------------- 3-- 5-- 2|-- 0------------------------ 0--|
B| 3 3-- 3---- 3 5-- 3-- 2------ 0|---- 3------ 3-------- 0 2 3----|
G| 2-- 2 2---- 2 2-------------- 2|---------- 2-------- 2----------|
D|------ 4 4---- 2----------------|-------- 0---------- 0----------|
A| 5-------------- 4------------ 2|-------------- 0----------------|
E|--------------------------------|--------------------------------|
http://classicalguitartablature.blogspot.com/
E| 0---------- 2-- 0-------- 0 2 2|-------------- 2-------- 2------|
B| 3-------------- 3-- 3 3--------| 5---- 5---- 3 2-- 5 3-- 2 5 3--|
G| 2------ 2------ 0-- 0 0--------| 2---------- 2 2-- 2 2-- 2 2 2--|
D|---- 0-------------- 0 0--------|---- 2---- 2------ 2 2---- 2 2--|
A|--------------------------------| 0------------------------------|
E| 2-------------- 3--------------|--------------------------------|
http://classicalguitartablature.blogspot.com/
E|-------- 2 2 2 2----------------|------ 0 0 0 5---- 3 2-- 0---- 0|
B|-------- 3 3 3 2-- 5 5----------|------ 0-- 0------ 0 0------ 3 0|
G|-------- 2 2 2 2-------- 2-- 2--|---- 0 0 0 0 0-- 0------------ 0|
D|---- 4---------- 2-------- 2----|---- 0--------------------------|
A| 5------------ 4----------------|--------------------------------|
E|--------------------------------| 0-------------- 0------------ 3|
http://classicalguitartablature.blogspot.com/
E|-------------- 2----------------|---- 2 2 2 2 2 2----------------|
B|-- 0-- 3------ 3-- 5 3 3---- 5 3|---- 3 3 3 3 3 2-- 5 5----------|
G|---------- 2 2 2-- 2 2 2-- 2-- 2|------ 2 2 2 2 2-- 2 2---- 2----|
D|---------- 0------ 2 2 2------ 4|-- 4-------------- 2 2-- 2-- 2--|
A|-------------- 0------ 0------ 5|-------------- 4----------------|
E|-------- 3----------------------|--------------------------------|
http://classicalguitartablature.blogspot.com/
E|------ 0 0 0 5---- 3 2-- 0---- 0|-------------- 2----------------|
B|------ 0-- 0------ 0 0------ 3 0|-- 0-- 3------ 3-- 5 3 3---- 5 3|
G|---- 0 0 0 0 0-- 0------------ 0|---------- 2 2 2-- 2 2 2-- 2-- 2|
D|---- 0--------------------------|---------- 0------ 2 2 2------ 4|
A|--------------------------------|-------------- 0------ 0------ 5|
E| 0-------------- 0------------ 3|-------- 3----------------------|
http://classicalguitartablature.blogspot.com/
E|------------------------------ 0|-- 0-- 0---------------- 0 0----|
B|------------------------ 3 3 3 1|-- 1-- 1 3 1---------------- 3 3|
G|------ 2---- 2-------- 2------ 0|-- 0-- 0 0 0---------- 0------ 0|
D|-- 4------ 4------ 4------------|---------- 2------ 2---------- 0|
A|-------------- 5-------------- 3|---------------- 3------------ 2|
E|--------------------------------|--------------------------------|
http://classicalguitartablature.blogspot.com/
E|-- 0----------------------------|--------------------------------|
B|------ 0---------------- 3 3 1 3|-- 3-- 3-- 3 5 6-- 5-- 3-- 3-- 1|
G|------------ 0-------- 0------ 3|-- 3-- 3-- 3 3 3-- 3-- 3---- 5 2|
D|---------- 0------ 0---------- 3|-- 3-- 3------ 3-- 3-- 3------ 3|
A|---------------- 2--------------|--------------------------------|
E|------------------------------ 6|---------------- 6--------------|
http://classicalguitartablature.blogspot.com/
E|------------------------ 1 1 1 1|-- 0 0---------------- 0 3 3 0--|
B|-- 3-------------------------- 1|---- 1------ 1---------------- 8|
G|------ 2------ 2------ 2------ 0|-- 0------ 0-------- 0-------- 7|
D|---------- 3-------- 3----------|-------- 2-------- 2------------|
A| 0-------------- 0------------ 3|-------------- 3----------------|
E|--------------------------------|------------------------------ 7|
http://classicalguitartablature.blogspot.com/
E|---- 5--------------------------|------ 3------------------------|
B|-- 8---- 8------------------ 5--| 6 6 6 6-- 6 5-- 3---------- 3 5|
G|---------- 7-------- 7---- 7----| 3 3 3 3-- 3 3-------- 3-- 5-- 6|
D| 5---------- 5---- 5------------| 3 3 3---- 3 3------ 3----------|
A|--------------------------------|--------------------------------|
E|-------------- 7----------------| 6------------ 6----------------|
http://classicalguitartablature.blogspot.com/
E|-- 5 5--------------------------|10----10------10------10--------|
B|-- 5 5-------------- 5----------|------ 8------ 8---- 8------ 8--|
G|-- 6-- 6------ 6---- 6---- 6----|---- 9------ 9------ 9---- 9----|
D| 7---------- 7-------- 7-- 7----|-- 7------ 7---- 7------ 7------|
A| 0------ 0------ 0------ 0------| 0------ 0---- 0------ 0--------|
E|--------------------------------|--------------------------------|
http://classicalguitartablature.blogspot.com/
E|-------- 2 2 2 2----------------|------ 0 0 0 5---- 3 2-- 0---- 0|
B|-------- 3 3 3 2-- 5 5----------|------ 0-- 0------ 0 0------ 3 0|
G|-------- 2 2 2 2-------- 2-- 2--|---- 0 0 0 0 0-- 0------------ 0|
D|---- 4---------- 2-------- 2----|---- 0--------------------------|
A| 5------------ 4----------------|--------------------------------|
E|--------------------------------| 0-------------- 0------------ 3|
http://classicalguitartablature.blogspot.com/
E|-------------- 2----------------|---- 2 2 2 2 2 2----------------|
B|-- 0-- 3------ 3-- 5 3 3---- 5 3|---- 3 3 3 3 3 2-- 5 5----------|
G|---------- 2 2 2-- 2 2 2-- 2-- 2|------ 2 2 2 2 2-- 2 2---- 2----|
D|---------- 0------ 2 2 2------ 4|-- 4-------------- 2 2-- 2-- 2--|
A|-------------- 0------ 0------ 5|-------------- 4----------------|
E|-------- 3----------------------|--------------------------------|
http://classicalguitartablature.blogspot.com/
E|------ 0 0 0 5---- 3 2-- 0---- 0|-------------- 2----------------|
B|------ 0-- 0------ 0 0------ 3 0|-- 0-- 3------ 3-- 5 3 3---- 5 3|
G|---- 0 0 0 0 0-- 0------------ 0|---------- 2 2 2-- 2 2 2-- 2-- 4|
D|---- 0--------------------------|---------- 0------ 2 2 2--------|
A|--------------------------------|-------------- 0------ 0------ 2|
E| 0-------------- 0------------ 3|-------- 3----------------------|
http://classicalguitartablature.blogspot.com/
E|------ 2-- 3 5--1010--10--------|------10 8-------------------- 0|
B|----------------10----10----10--|----------10-- 8--10---------- 0|
G|---- 4---------- 9 9-- 9-- 9-- 9|---- 0------10------10---- 7-- 0|
D|-- 4----------------------------|---- 0------------------10------|
A|--------------------------------|--------------------------------|
E|---------------- 9--------------| 0------------ 0-------------- 3|
http://classicalguitartablature.blogspot.com/
E|-------------- 2----------------|---- 2 2 2 2 2 2----------------|
B|-- 0-- 3------ 3-- 5 3 3---- 5 3|---- 3 3 3 3 3 2-- 5 5----------|
G|---------- 2 2 2-- 2 2 2-- 2-- 2|------ 2 2 2 2 2-- 2 2---- 2----|
D|---------- 0------ 2 2 2------ 4|-- 4-------------- 2 2-- 2-- 2--|
A|-------------- 0------ 0------ 5|-------------- 4----------------|
E|-------- 3----------------------|--------------------------------|
http://classicalguitartablature.blogspot.com/
E|------ 0 0 0 5---- 3 2-- 0---- 0|-------------- 2----------------|
B|------ 0-- 0------ 0 0------ 3 0|-- 0-- 3------ 3-- 5 3 3---- 5 3|
G|---- 0 0 0 0 0-- 0------------ 0|---------- 2 2 2-- 2 2 2-- 2----|
D|---- 0--------------------------|---------- 0------ 2 2 2--------|
A|--------------------------------|-------------- 0------ 0--------|
E| 0-------------- 0------------ 3|-------- 3----------------------|
http://classicalguitartablature.blogspot.com/
E|--------------------------------|-------------------- 0----------|
B|---------------- 2------ 2------|-------------- 0----------------|
G| 2------ 2------ 2------ 2------|---------- 0--------------------|
D| 4-- 4------ 4------ 2------ 2--|---- 0--------------------------|
A| 5-------------- 4--------------|--------------------------------|
E|--------------------------------| 0------------------------------|
http://classicalguitartablature.blogspot.com/

0 ความคิดเห็น:

แสดงความคิดเห็น