To celebrate the anniversary, I am giving you (finally...) : iPhone LickByNeck !!!!!!

Sweet Child O' Mine (BASIC)

Guns N' Roses' classic tune fingerstyle chord melody guitar BASIC arrangement played in the key of C. Sweet Child O' Mine - Guns N' Roses - BASIC ARRANGEMENT played in the key of C
http://classicalguitartablature.blogspot.com/
E|--------------13------12--------|--------------13------12--------|
B|--13----------------------------|----13--------------------------|
G|------12--10------12------12----|------12--10------12------12----|
D|10----------------------------10|--------------------------------|
A|--------------------------------|--------------------------------|
E|--------------------------------|--------------------------------|
http://classicalguitartablature.blogspot.com/
E|----------------13------12------|----------------13------12------|
B|----13--------------------------|----13--------------------------|
G|--------12--10------12------12--|--------12--10------12------12--|
D|12------------------------------|12------------------------------|
A|--------------------------------|--------------------------------|
E|--------------------------------|--------------------------------|
http://classicalguitartablature.blogspot.com/
http://classicalguitartablature.blogspot.com/
E|----------------13------12------|--------------13------12--------|
B|----13--------------------------|----13--------------------------|
G|10------12--10------12------12--|10------12--10----12--------12--|
D|--------------------------------|--------------------------------|
A|--------------------------------|--------------------------------|
E|--------------------------------|--------------------------------|
http://classicalguitartablature.blogspot.com/
E|--------------13--------12------|--------------13--------12------|
B|----13--------------------------|----13--------------------------|
G|--------12--10------12------12--|------12----10------12------12--|
D|10------------------------------|10------------------------------|
A|--------------------------------|--------------------------------|
E|--------------------------------|--------------------------------|
http://classicalguitartablature.blogspot.com/
E|--------------------------------|--------------------------------|
B|--------------------------------|--------------------------------|
G|--------------------------------|--------------------------------|
D|--------------------------------|--------------------------------|
A|------------ 7---------- 7-- 8--|10------12--10 8-- 7-------- 7--|
E| 8------------------ 8----------|---------------------- 8--------|
http://classicalguitartablature.blogspot.com/
E|--------------------------------|--------------------------------|
B|--------------------------------|--------------------------------|
G|--------------------------------|--------------------------------|
D|--------------------------------|--------------------------------|
A|------------ 8------------------| 6-- 5------ 6------ 5----------|
E| 6-------------------------- 6--|-------- 6-------------- 6-- 0--|
http://classicalguitartablature.blogspot.com/
E|--------------------------------|--------------------------------|
B|--------------------------------|--------------------------------|
G|--------------------------------|--------------------------------|
D|--------------------------------|--------------------------------|
A|--------------------------------| 8-------------------------- 8--|
E| 1-------------------------- 8--|--------------------------------|
http://classicalguitartablature.blogspot.com/
E|--------------------------------|--------------------------------|
B|--------------------------------|--------------------------------|
G|--------------------------------|--------------------------------|
D|--------------------------------|--------------------------------|
A| 8-- 7------ 8------ 7----------|--------------------------------|
E|-------- 8-------------- 8-- 8--|-- 8---- 8-- 8-- 8-- 8-- 8-- 8--|
http://classicalguitartablature.blogspot.com/
E| 3-- 3------ 3------ 3-- 1-- 0--| 1-- 3------ 0------------------|
B| 1-- 1------ 1------ 1-- 1------|---- 1-------------- 3-- 1---- 6|
G| 0-- 0------ 0---------- 0-- 0--| 0-- 0------ 0------ 0-- 0---- 3|
D|--------------------------------|-------------------- 2------ 2--|
A| 3---------- 3------------------| 3---------- 3------------------|
E|--------------------------------|--------------------------------|
http://classicalguitartablature.blogspot.com/
E|--------------------------------|--------------------------------|
B|---- 6------ 6-------------- 6--| 6-- 5------ 3------------------|
G|---- 3------ 3---------- 3---- 3|---- 3------ 3---- 5-------- 5--|
D| 3-- 3------ 3------ 3----------| 3-- 3------ 3-------- 3--------|
A|--------------------------------|--------------------------------|
E| 6---------- 6------------------| 6---------- 6------------------|
http://classicalguitartablature.blogspot.com/
E| 1 1------ 1---------------- 1--|---- 1---- 1-------- 3---- 1----|
B| 1 1-------- 1-------------- 1--|---------- 1-------- 1---- 1----|
G| 2 2-------- 2---------- 2-- 2--|---------- 2-------- 2---- 0----|
D|-------------------- 3----------|--------------------------------|
A|--------------------------------|--------------------------------|
E| 1---------- 1------------------| 1-------------- 1--------------|
http://classicalguitartablature.blogspot.com/
E|-- 0-------- 1------ 0------ 1--|---- 0------ 1------ 0----------|
B|-- 1-------- 0------ 1------ 1--|------------ 1------------------|
G|-- 0-------- 0------ 0------ 0--|---- 0------ 0------ 0------ 0--|
D|--------------------------------|------------------------ 2------|
A| 3-------------- 3--------------| 3-------------- 3--------------|
E|--------------------------------|--------------------------------|
http://classicalguitartablature.blogspot.com/
E| 3-- 3------ 3------ 3-- 1-- 0--| 1-- 3------ 0------------------|
B| 1-- 1------ 1------ 1-- 1------|---- 1-------------- 3-- 1---- 6|
G| 0-- 0------ 0---------- 0-- 0--| 0-- 0------ 0------ 0-- 0---- 3|
D|--------------------------------|-------------------- 2------ 2--|
A| 3---------- 3------------------| 3---------- 3------------------|
E|--------------------------------|--------------------------------|
http://classicalguitartablature.blogspot.com/
E|--------------------------------|--------------------------------|
B|---- 6------ 6-------------- 6--| 6-- 5------ 3------------------|
G|---- 3------ 3---------- 3---- 3|---- 3------ 3---- 5-------- 5--|
D| 3-- 3------ 3------ 3----------| 3-- 3------ 3-------- 3--------|
A|--------------------------------|--------------------------------|
E| 6---------- 6------------------| 6---------- 6------------------|
http://classicalguitartablature.blogspot.com/
E| 1 1------ 1---------------- 1--|---- 1---- 1-------- 3---- 1----|
B| 1 1-------- 1-------------- 1--|---------- 1-------- 1---- 1----|
G| 2 2-------- 2---------- 2-- 2--|---------- 2-------- 2---- 0----|
D|-------------------- 3----------|--------------------------------|
A|--------------------------------|--------------------------------|
E| 1---------- 1------------------| 1-------------- 1--------------|
http://classicalguitartablature.blogspot.com/
E|-- 0-------- 1------ 0------ 1--|---- 0------ 1------ 0----------|
B|-- 1-------- 0------ 1------ 1--|------------ 1------------------|
G|-- 0-------- 0------ 0------ 0--|---- 0------ 0------ 0------ 0--|
D|--------------------------------|------------------------ 2------|
A| 3-------------- 3--------------| 3-------------- 3--------------|
E|--------------------------------|--------------------------------|
http://classicalguitartablature.blogspot.com/
E| 3---------- 3---- 5------------|-------------------------- 1----|
B| 3------------------ 3---- 8----|---- 6 6------ 6-- 6------ 1----|
G| 4---------- 4---- 4------ 7----|---- 7 7------ 7-- 7------ 0----|
D|---- 5---------------------- 8--|---- 8-- 8 8-- 8-- 8------------|
A|--------------------------------|--------------------------------|
E| 3---------- 3---------------- 6|-------------- 6----------------|
http://classicalguitartablature.blogspot.com/
E|-- 0-------- 1------ 0------ 1--|---- 0------ 1------ 0-------- 3|
B|-- 1-------- 0------ 1------ 1--|------------ 1---------------- 0|
G|-- 0-------- 0------ 0------ 0--|---- 0------ 0------ 0------ 0--|
D|--------------------------------|------------------------ 2------|
A| 3-------------- 3--------------| 3-------------- 3--------------|
E|--------------------------------|--------------------------------|
http://classicalguitartablature.blogspot.com/
E|-------------- 1-- 0------ 1----|-------------------- 0----------|
B|-------------- 0-- 0-- 1---- 3--|---- 1------ 3------------ 3----|
G| 0-------- 0-- 0-- 0-- 0---- 3--|---- 3------ 3------------ 0----|
D|------ 0-------------- 0--------|-------------------------- 2----|
A|------------------------------ 1|-------------- 1-------------- 3|
E| 3-------------- 3--------------|--------------------------------|
http://classicalguitartablature.blogspot.com/
E|--------------------------------|---------------------- 3--------|
B|-- 1---------------------- 1----|------------ 1------------------|
G|-- 0------------------ 0--------|-------- 0----------------------|
D|---------- 2------ 2------------|---- 2-------------- 2------ 2--|
A|-------------- 3-------------- 3|---------------- 3--------------|
E|--------------------------------|--------------------------------|
http://classicalguitartablature.blogspot.com/
E| 1---------- 0---------- 3------| 1---------- 0---------- 3------|
B| 1---------- 1------------ 1----| 1---------- 1------------------|
G| 0---------- 0------------------| 0---------- 0------ 0------ 0--|
D|-------------------- 2----------|--------------------------------|
A| 3---------- 3------------------| 3---------- 3------------------|
E|--------------------------------|--------------------------------|
http://classicalguitartablature.blogspot.com/
E|------------------ 3------------|------------------ 3---------- 1|
B| 6-------- 3-------------- 6----|---------- 3------------------ 1|
G| 3---- 3------------------------|------ 3---------------------- 2|
D| 3-- 3--------------------------|---- 3-------------------- 3----|
A|--------------------------------|--------------------------------|
E| 6------------ 6----------------| 6------------ 6-------------- 1|
http://classicalguitartablature.blogspot.com/
E|------------------ 3------ 1----|-------------- 1-- 0-------- 1--|
B|-------------------- 1------ 1--|------------ 1 1------ 1---- 1--|
G|------------ 2-------------- 2--|------ 2-------------------- 0--|
D|------ 3------------------------|---- 3--------------------------|
A|--------------------------------|--------------------------------|
E|-------------- 1----------------| 1-------------- 1--------------|
http://classicalguitartablature.blogspot.com/
E|------------------ 3-- 1---- 0--|------------------ 3------------|
B|------------------ 1-- 1--------|--------------------------------|
G|------------ 0---- 0-- 0--------|------------ 0-------------- 0--|
D|-------- 2----------------------|-------- 2-------------- 2------|
A| 3------------ 3----------------| 3-------------- 3--------------|
E|--------------------------------|--------------------------------|
http://classicalguitartablature.blogspot.com/
E|--------------------------------|-------------------- 8------ 6--|
B|------------------ 8------------|------------ 810------------ 6--|
G|10---------- 9--------------10--|---- 9---------------------- 7--|
D|10----------10--------------10--|--------------------------------|
A|--------------------------------|--------------------------------|
E| 8-------------- 8--------------| 8-------------- 8--------------|
http://classicalguitartablature.blogspot.com/
E|------------10------------10----|---- 8 8-- 8-- 8-- 6---- 6 6----|
B|--------------------------------|------------ 6 6-- 6---- 6 6----|
G|-------- 7------------ 7--------|---- 7-- 7 7-- 7-- 7---- 7 7----|
D|---- 8-------------- 8----------|--------------------------------|
A|--------------------------------|--------------------------------|
E| 6-------------- 6--------------| 6------------ 6----------------|
http://classicalguitartablature.blogspot.com/
E|--------------------------------|------ 8--10------ 8------12----|
B|10----------------10-- 8------ 8|10------------------------13----|
G|10----10------------------10--10|--------------------------12----|
D|10----------10------------------|10----------------------10------|
A| 8-------------- 8--------------| 8-------------- 8--------------|
E|--------------------------------|--------------------------------|
http://classicalguitartablature.blogspot.com/
E|--15----------------------------|--------------------------------|
B|--13--------------13----------13|--13--13--13--13--13--13--13----|
G|--12------12----------12------12|--12--12--12--12--12--12--12----|
D|--------------------------------|--------------------------------|
A|15------------15----------------|15------1515--15----1515--15----|
E|--------------------------------|--------------------------------|
http://classicalguitartablature.blogspot.com/
E| 3---------- 3---- 5------------|-------------------------- 1----|
B| 3------------------ 3---- 8----|---- 6 6------ 6-- 6------ 1----|
G| 4---------- 4---- 4------ 7----|---- 7 7------ 7-- 7------ 0----|
D|---- 5---------------------- 8--|---- 8-- 8 8-- 8-- 8------------|
A|--------------------------------|--------------------------------|
E| 3---------- 3---------------- 6|-------------- 6----------------|
http://classicalguitartablature.blogspot.com/
E|-- 0-------- 1------ 0------ 1--|---- 0------ 1------ 0-------- 3|
B|-- 1-------- 0------ 1------ 1--|------------ 1---------------- 0|
G|-- 0-------- 0------ 0------ 0--|---- 0------ 0------ 0------ 0--|
D|--------------------------------|------------------------ 2------|
A| 3-------------- 3--------------| 3-------------- 3--------------|
E|--------------------------------|--------------------------------|
http://classicalguitartablature.blogspot.com/
E|-------------- 1-- 0------ 1----|-------------------- 0----------|
B|-------------- 0-- 0-- 1---- 3--|---- 1------ 3------------ 3----|
G| 0-------- 0-- 0-- 0-- 0---- 3--|---- 3------ 3------------ 0----|
D|------ 0-------------- 0--------|-------------------------- 2----|
A|------------------------------ 1|-------------- 1-------------- 3|
E| 3-------------- 3--------------|--------------------------------|
http://classicalguitartablature.blogspot.com/
E|--------------------------------|---------------------- 3--------|
B|-- 1---------------------- 1----|------------ 1------------------|
G|-- 0------------------ 0--------|-------- 0----------------------|
D|---------- 2------ 2------------|---- 2-------------- 2------ 2--|
A|-------------- 3-------------- 3|---------------- 3------------10|
E|--------------------------------|--------------------------------|
http://classicalguitartablature.blogspot.com/
E|------------------ 8------10----|---- 8 8------ 8---- 8----------|
B| 8--------10-------------- 6----|------ 6--10-------- 6------10--|
G|---- 7-------------------- 7----|---- 7-------- 7---- 7------ 9--|
D|--------------------------------|----------------------------10--|
A|----------------10--------------|--------------------------------|
E|--------------------------------| 6-------------- 6--------------|
http://classicalguitartablature.blogspot.com/
E|--------------------------------|------------------------------ 3|
B|---- 8--------------------------|-------------------------- 8-- 0|
G|---- 9---- 9---------- 9--------|-------- 9------------ 9--------|
D|----10--------------10------10--|----10------10------10----------|
A|--------------------------------|--------------------------------|
E| 8------------ 8----------------| 8-------------- 8--------------|
http://classicalguitartablature.blogspot.com/
E|-------------- 1-- 0------ 1----|-------------------- 0----------|
B|-------------- 0-- 0-- 1---- 3--|---- 1------ 3-------------- 3--|
G| 0-------- 0-- 0-- 0-- 0---- 3--|---- 3------ 3-------------- 0--|
D|------ 0-------------- 0--------|---------------------------- 2--|
A|------------------------------ 1|-------------- 1----------------|
E| 3-------------- 3--------------|--------------------------------|
http://classicalguitartablature.blogspot.com/
E|--------------------------------|--------------------------------|
B|---- 1--------------------------|--------------------------------|
G|---- 0-------------- 0----------| 0-- 0-- 0-- 0-- 0-- 0-- 0-- 0--|
D|------------ 2-------------- 2--| 2-- 2-- 2-- 2-- 2-- 2-- 2-- 2--|
A| 3-------------- 3--------------| 3-- 3-- 3-- 3-- 3-- 3-- 3-- 3--|
E|--------------------------------|--------------------------------|
http://classicalguitartablature.blogspot.com/
E|--------------------------------|--------------------------------|
B|------------------------------ 1|------------ 1------ 1-------- 0|
G| 7---------- 7------ 7-------- 2|------------ 2------ 2-------- 0|
D| 7---------- 7---------- 7---- 3|------------ 3------ 3-------- 0|
A| 5---------- 5------------------|--------------------------------|
E|--------------------------------| 1---------- 1---------------- 3|
http://classicalguitartablature.blogspot.com/
E|--------------------------------|--------------------------------|
B|---------- 0------ 0------------|-- 1------ 3------ 3------ 3----|
G|---------- 0------ 0---------- 3|-- 3------ 5------ 5------ 5----|
D|---------- 0------ 0---------- 3|-- 3------ 5------ 5------ 5----|
A|------------------------------ 1|-- 1------ 3-------------- 3----|
E|------------ 3------------------|--------------------------------|
http://classicalguitartablature.blogspot.com/
E|--------------------------------|--------------------------------|
B|------------------------------ 1|------------ 1------ 1-------- 0|
G| 7---------- 7------ 7-------- 2|------------ 2------ 2-------- 0|
D| 7---------- 7---------- 7---- 3|------------ 3------ 3-------- 0|
A| 5---------- 5------------------|--------------------------------|
E|--------------------------------| 1---------- 1---------------- 3|
http://classicalguitartablature.blogspot.com/
E|--------------------------------|--------------------------------|
B|---------- 0------ 0------------|-- 1------ 3------ 3------ 3----|
G|---------- 0------ 0---------- 3|-- 3------ 5------ 5------ 5-- 7|
D|---------- 0------ 0---------- 3|-- 3------ 5------ 5------ 5-- 7|
A|------------------------------ 1|-- 1------ 3-------------- 3-- 5|
E|------------ 3------------------|--------------------------------|
http://classicalguitartablature.blogspot.com/
E|--------------------------------|--------------------------------|
B|--------------------------------| 3-- 1--------------------------|
G|-- 5----------------------------| 2------ 2-- 0------------------|
D|------ 7-- 5-------- 3------ 3--| 3------------------ 3------ 3--|
A|---------- 5--------------------|--------------------------------|
E|--------------------------------| 1-------------- 1--------------|
http://classicalguitartablature.blogspot.com/
E|--------------------------------|--------------------------------|
B| 3-- 1--------------------------|--------------------------------|
G| 0------ 2-- 0------------------|---- 3------ 3 5---- 5---- 5-- 7|
D| 0------------------ 0------ 0--|---- 3------ 3 5---- 5---- 5-- 7|
A|--------------------------------| 1------------ 3-------------- 5|
E| 3-------------- 3--------------|--------------------------------|
http://classicalguitartablature.blogspot.com/
E|--------------------------------|--------------------------------|
B|--------------------------------| 3-- 1--------------------------|
G|-- 5----------------------------| 2------ 2-- 0------------------|
D|------ 7-- 5-------- 3------ 3--| 3------------------ 3------ 3--|
A|---------- 5--------------------|--------------------------------|
E|--------------------------------| 1-------------- 1--------------|
http://classicalguitartablature.blogspot.com/
E|-------- 1----------------------|--------------------------------|
B| 3-- 3------ 3------------------|--------------------------------|
G| 0-- 0---------------- 0--------|---- 3------ 3 5---- 5---- 5----|
D| 0-- 0-------------- 0------ 0--|---- 3------ 3 5---- 5---- 5-- 3|
A|--------------------------------| 1------------ 3-------------- 5|
E| 3-------------- 3--------------|--------------------------------|
http://classicalguitartablature.blogspot.com/
E|--------------------------------|--------------------------------|
B|--------------------------------|-- 3-------- 1------------ 1----|
G| 2-- 0------ 2---------- 2------|-- 2-------- 2-------- 2--------|
D|-------- 3---------- 3------ 3--|-- 3-------- 3---- 3------------|
A|---------------- 5--------------|--------------------------------|
E|--------------------------------| 1-------------- 1--------------|
http://classicalguitartablature.blogspot.com/
E|--------------------------------|--------------------------------|
B| 3-- 1--------------------------|--------------------------------|
G| 0------ 2-- 0------------------|---- 3------ 3 5---- 5---- 5-- 2|
D| 0------------------ 0------ 0--|---- 3------ 3 5---- 5---- 5-- 3|
A|--------------------------------| 1------------ 3-------------- 5|
E| 3-------------- 3--------------|--------------------------------|
http://classicalguitartablature.blogspot.com/
E|--------------------------------|--------------------------------|
B|--------------------------------|--------------------------------|
G|------ 2------ 2------ 2--------| 2------ 2------ 2------ 2------|
D|------------ 3-------------- 3--| 3---------- 3------------ 3----|
A|-------------- 5----------------|--------------------------------|
E|--------------------------------| 1-------------- 1--------------|
http://classicalguitartablature.blogspot.com/
E|--------------------------------|------------------------------ 5|
B| 3-- 1--------------------------|------------------------------ 6|
G| 0------ 2-- 0-------------- 0--|---- 3------ 3 5---- 5---- 5-- 7|
D| 0------------------ 3----------|---- 3------ 3 5---- 5---- 5----|
A|--------------------------------| 1------------ 3-------------- 5|
E| 3-------------- 3--------------|--------------------------------|
http://classicalguitartablature.blogspot.com/
E|------ 5-------- 5---- 5--------|------------------------------10|
B|------ 6------ 6------ 6------10|------10------10------10------10|
G|-------------- 7--------------10|------10--------10----10------10|
D|-- 7-------- 7------ 7---- 7----|----10------10------10------10--|
A|-------------- 5----------------| 8-------------- 8------------10|
E|--------------------------------|--------------------------------|
http://classicalguitartablature.blogspot.com/
E|------------------------------10|---- 8--------------------------|
B|--13--10---------------------- 6|---- 6----10---- 9-- 8----------|
G|--10--10----12----10---------- 7|---- 7---------- 9--------10----|
D|--12--12----12------12------12--|---------------- 8--------------|
A|--------------10----------------|--------------------------------|
E|--------------------------------| 6-------------- 8--------------|
http://classicalguitartablature.blogspot.com/
E|------------------ 5------ 3 1--|-------------------- 5----------|
B|------------------ 6------ 1----| 3----------------------------10|
G| 7-------- 7------ 7------ 2----| 2---------- 2------------------|
D| 7------ 7----------------------| 3------ 3----------------------|
A| 5------------ 5----------------|------------------------------10|
E|--------------------------------| 1------------ 1----------------|
http://classicalguitartablature.blogspot.com/
E|---- 8-------- 8-------- 8------|-------- 5---- 8---- 5------ 8--|
B|--------10--------10-------- 8--|-------- 6---------- 6------ 6--|
G|--------------------------------|--10---- 7---------- 7------ 7--|
D|--------------------------------|--------------------------------|
A|--------------------------------|--------------------------------|
E|--------------------------------|-------- 6----------------------|
http://classicalguitartablature.blogspot.com/
E|--10------ 8--------------------|--------------------------------|
B|-- 8------ 8------10------10----|---------- 8 6------------------|
G|-- 9------ 9------ 9------ 9----|-------- 5------ 7--------------|
D|------------------ 8------ 8----|-------- 7----------------------|
A|--------------------------------|-------- 5----------------------|
E|-- 8----------------------------|--------------------------------|
http://classicalguitartablature.blogspot.com/
E|--------------------------------|--------------------------------|
B|--------------------------------|--------------------------------|
G|------ 5-------------- 6--------|---------- 7--------------------|
D|--------------------------------|--------------------------------|
A|--------------------------------|--------------------------------|
E|--------------------------------|--------------------------------|
http://classicalguitartablature.blogspot.com/

0 ความคิดเห็น:

แสดงความคิดเห็น