To celebrate the anniversary, I am giving you (finally...) : iPhone LickByNeck !!!!!!

Sweet Dreams (BASIC)

Eurythmics' tune fingerstyle chord melody guitar BASIC arrangement played in the key of Em. Sweet Dreams - Eurythmics - BASIC ARRANGEMENT played in the key of Em
http://classicalguitartablature.blogspot.com/
E|--------------------------------|--------------------------------|
B|--------------------------------|--------------------------------|
G|--------------------------------|--------------------------------|
D|--------------------------------|--------------------------------|
A|-------- 7-- 7--10--10-- 7 7----|------------ 7-------------- 7--|
E| 0-- 0--------------------------| 8------ 8------ 7-- 7--10------|
http://classicalguitartablature.blogspot.com/
E|--------------------------------|--------------------------------|
B|--------------------------------|--------------------------------|
G|--------------------------------|--------------------------------|
D|--------------------------------|--------------------------------|
A|-------- 7-- 7--10--10-- 7-- 7--|---------- 7---------------- 7--|
E| 0-- 0--------------------------| 8-- 8 8------ 7---- 7--10------|
http://classicalguitartablature.blogspot.com/
http://classicalguitartablature.blogspot.com/
E|--------------------------------|--------------------------------|
B|------ 8------ 8-------------- 8|-- 8------ 7------------------ 8|
G|-------- 9------ 9---- 9------ 9|-- 9----------------------------|
D|--------------------------------|1010----------------------------|
A|-------- 7-- 7--1010---- 7-- 7--|------------ 7-------------- 7--|
E| 0-- 0--------------------------| 8-- 8-- 8------ 7-- 7--10------|
http://classicalguitartablature.blogspot.com/
E|--------------------------------|--------------------------------|
B|-- 8------ 8--------------------| 8--10------ 7------------------|
G|------ 9-------------- 9--------| 9-- 9------ 8-------------- 9--|
D|--------------------------------|10--10------ 9------------------|
A|------ 7-- 7----10--10-- 7-- 7--|------------ 7-------------- 7--|
E| 0 0----------------------------| 8-- 8-- 8------ 7-- 7--10------|
http://classicalguitartablature.blogspot.com/
E|--------------------------------|--------------------------------|
B| 8 8------ 8---------- 8--------| 8--10---- 7--------------------|
G|------ 9------------------ 9----| 9-- 9--------------------------|
D|--------------------------------|10--10--------------------------|
A|-------- 7-- 7--1010-- 7---- 7--|------------ 7-------------- 7--|
E| 0-- 0--------------------------| 8-- 8-- 8------ 7-- 7--10------|
http://classicalguitartablature.blogspot.com/
E|--------------------------------|--------------------------------|
B| 8-------- 8--------------------| 8 8----10-- 8------ 7----------|
G|------ 9---------- 9------------| 9 9---- 9-- 8------ 8----------|
D|--------------------------------|10--10--10-- 7------ 7----------|
A|------ 7---- 7--1010-- 7-- 7----|------------ 7-------------- 7--|
E| 0-- 0--------------------------| 8-- 8-- 8------ 7-- 7--10------|
http://classicalguitartablature.blogspot.com/
E|--------------------------------|--------------------------------|
B| 8 8------------ 8-- 8------ 8--|--------------------------------|
G|------ 9-------------- 9---- 9--|---- 9--------------------------|
D|----------------------------10--|----10--------------------------|
A|-------- 7-- 7--10--10-- 7-- 7--|------------ 7------------ 7----|
E| 0-- 0--------------------------| 8-- 8-- 8------ 7-- 7--10------|
http://classicalguitartablature.blogspot.com/
E|--------------------------------|--------------------------------|
B| 8 8------------ 8-- 8------ 8--|----10------ 8------ 7----------|
G|------ 9-------------- 9---- 9--|-- 9-------- 8------ 8----------|
D|----------------------------10--|--10-------- 7------ 7----------|
A|-------- 7-- 7--10--10-- 7-- 7--|------------ 7-------------- 7--|
E| 0-- 0------------------------ 8|---- 8 8-------- 7-- 7--10------|
http://classicalguitartablature.blogspot.com/
E|--------------------------------|--------------------------------|
B| 8 8------------ 8-- 8------ 8--|--------------------------------|
G|------ 9-------------- 9---- 9--|---- 9--------------------------|
D|----------------------------10--|----10--------------------------|
A|-------- 7-- 7--10--10-- 7-- 7--|------------ 7------------ 7----|
E| 0-- 0--------------------------| 8-- 8-- 8------ 7-- 7--10------|
http://classicalguitartablature.blogspot.com/
E|--------------------------------|--------------------------------|
B| 8 8------------ 8-- 8------ 8--|----10------ 8------ 7----------|
G|------ 9-------------- 9---- 9--|-- 9-------- 8------ 8----------|
D|----------------------------10--|--10-------- 7------ 7----------|
A|-------- 7-- 7--10--10-- 7-- 7--|------------ 7-------------- 7--|
E| 0-- 0------------------------ 8|---- 8 8-------- 7-- 7--10------|
http://classicalguitartablature.blogspot.com/
E|--------------------------------|------------------ 7------------|
B| 8------------------ 8------ 7--|---- 7------ 7---- 7--10-- 8--10|
G| 9------------------ 9------ 8--|---- 8------ 8---- 8------ 8-- 7|
D| 9-------------- 9-- 9------ 7--|---- 7------ 7-------- 7-- 7-- 9|
A|--------------------------------|--------------------------------|
E| 8---------- 8------------------| 7------------ 7----------------|
http://classicalguitartablature.blogspot.com/
E|-------------------------- 5----|--------------------------------|
B|------------ 8------ 8---- 5----|-- 8-- 5-- 5-------- 5---- 5-- 8|
G|------------ 7---- 7-------- 6--|-- 6-- 6-- 6-------- 6---- 6-- 9|
D|------------ 9------ 9----------|-- 5-- 5-- 5-------- 5------ 5 9|
A|--------------------------------|---------------- 5--------------|
E| 0---------- 0------------------| 5------------------------------|
http://classicalguitartablature.blogspot.com/
E|--------------------------------|--------------------------------|
B|------------ 8------ 8------ 7--|---- 7------ 7---------------- 8|
G|---------- 9-------- 9------ 8--|---- 8------ 8-------- 7-- 9-- 7|
D|------------ 9------ 9------ 7--|---- 7------ 7---- 9---------- 5|
A|--------------------------------|--------------------------------|
E| 8-------------- 8--------------| 7-------------- 7--------------|
http://classicalguitartablature.blogspot.com/
E|--------------------------------|--------------------------------|
B|---- 5-- 5-- 5-- 8 8-- 5------ 8|---- 5-- 5-- 5-------- 5------ 8|
G|-- 7---- 7-- 7-- 7 7-- 7--------| 6-- 6-- 6-- 6-- 7 7---------- 7|
D|---- 5-- 5-- 5-- 5-- 5 5--------| 5-- 5-- 5-- 5-- 5 5---------- 5|
A|--------------------------------| 0------------------------------|
E| 0------------------------------|--------------------------------|
http://classicalguitartablature.blogspot.com/
E|--------------------------------|------------------------------ 7|
B|---- 5-- 5-- 5-- 8 8-- 5------ 8|---- 5-- 5-- 5-------- 5------ 8|
G|-- 7---- 7-- 7-- 7 7-- 7--------| 6-- 6-- 6-- 6-- 7 7---------- 7|
D|---- 5-- 5-- 5-- 5-- 5 5--------| 5-- 5-- 5-- 5-- 5 5------------|
A|--------------------------------| 0------------------------------|
E| 0------------------------------|--------------------------------|
http://classicalguitartablature.blogspot.com/
E|-------------- 7-- 7---------- 7|------------------------------ 7|
B|-- 8---- 8-- 8 8---- 8 8------ 5|---- 8-- 8 8-- 7-- 7 8-------- 8|
G|-- 7---- 7-- 7-- 7 7-- 7------ 6|---- 6-- 6 6-- 6-- 6 6-------- 7|
D|-- 9---- 9-- 9-------- 9--------|---- 5-- 5 5---- 5 5-- 5--------|
A|--------------------------------| 0------------------------------|
E| 0------------------------------|--------------------------------|
http://classicalguitartablature.blogspot.com/
E|-------------- 7-- 7---------- 7|--------------------------------|
B|-- 8---- 8-- 8 8---- 8 8------ 8|---- 8-- 8-- 8-------- 8-- 7----|
G|-- 7---- 7-- 7-- 7 7-- 7------ 6|---- 6-- 6-- 6---- 7 9---- 9 7 9|
D|-- 9---- 9-- 9-------- 9--------|---- 5-- 5-- 5------------------|
A|--------------------------------| 0------------------------------|
E| 0------------------------------|--------------------------------|
http://classicalguitartablature.blogspot.com/
E|--------------------------------|------------------ 7------------|
B|--------------------------------| 8----------10----10------------|
G|--------------------------------| 9---------------- 8--12-- 9----|
D| 9------------------------------|10-------------------------- 9--|
A|-------- 7-- 7--10--10-- 7-- 7--|------------ 7------------------|
E| 0-- 0--------------------------| 8-- 8-- 8------ 7-- 7--10--12 0|
http://classicalguitartablature.blogspot.com/
E|--------------------------------|------------------ 7--10----12--|
B|--------------------------------|------------------ 7------------|
G|------------------------------ 9|------------------ 8------------|
D|--------------------------------|10------------------------------|
A|-------- 7-- 7--10--10-- 7 7----|------------ 7------------------|
E|---- 0--------------------------| 8-- 8-- 8------ 7-- 710----12--|
http://classicalguitartablature.blogspot.com/
E|--------------------------------|--------------------------------|
B|--------------------------------|----------------11--10----------|
G|------------------------------ 9|---------------- 8-- 812-- 9----|
D|--------------------------------|10-------------- 7-- 7------ 9--|
A|-------- 7-- 7--10--10-- 7-- 7--|------------ 7------------------|
E| 0-- 0--------------------------| 8-- 8-- 8------ 7-- 7--10--12 0|
http://classicalguitartablature.blogspot.com/
E|--------------------------------|--------------------------------|
B|--------------------------------|--------------------------------|
G|------------------------------ 9|---------------- 8--------------|
D|--------------------------------|10-------------- 7--------------|
A|-------- 7-- 7--10--10-- 7 7----|------------ 7-------------- 7--|
E|---- 0--------------------------| 8-- 8-- 8------ 7-- 7--10------|
http://classicalguitartablature.blogspot.com/
E|--------------------------------|--------------------------------|
B| 8 8------------ 8-- 8------ 8--|--------------------------------|
G|------ 9-------------- 9---- 9--|---- 9--------------------------|
D|----------------------------10--|----10--------------------------|
A|-------- 7-- 7--10--10-- 7-- 7--|------------ 7------------ 7----|
E| 0-- 0--------------------------| 8-- 8-- 8------ 7-- 7--10------|
http://classicalguitartablature.blogspot.com/
E|--------------------------------|--------------------------------|
B| 8 8------------ 8-- 8------ 8--|----10------ 8------ 7----------|
G|------ 9-------------- 9---- 9--|-- 9-------- 8------ 8----------|
D|----------------------------10--|--10-------- 7------ 7----------|
A|-------- 7-- 7--10--10-- 7-- 7--|------------ 7-------------- 7--|
E| 0-- 0------------------------ 8|---- 8 8-------- 7-- 7--10------|
http://classicalguitartablature.blogspot.com/
E|--------------------------------|--------------------------------|
B| 8 8------------ 8-- 8------ 8--|--------------------------------|
G|------ 9-------------- 9---- 9--|---- 9--------------------------|
D|----------------------------10--|----10--------------------------|
A|-------- 7-- 7--10--10-- 7-- 7--|------------ 7------------ 7----|
E| 0-- 0--------------------------| 8-- 8-- 8------ 7-- 7--10------|
http://classicalguitartablature.blogspot.com/
E|--------------------------------|--------------------------------|
B| 8 8------------ 8-- 8------ 8--|----10------ 8------ 7----------|
G|------ 9-------------- 9---- 9--|-- 9-------- 8------ 8----------|
D|----------------------------10--|--10-------- 7------ 7----------|
A|-------- 7-- 7--10--10-- 7-- 7--|------------ 7-------------- 7--|
E| 0-- 0------------------------ 8|---- 8 8-------- 7-- 7--10------|
http://classicalguitartablature.blogspot.com/
E|--------------------------------|--------------------------------|
B|------ 8------ 8-------------- 8|-- 8------ 7------------------ 8|
G|-------- 9------ 9---- 9------ 9|-- 9----------------------------|
D|--------------------------------|1010----------------------------|
A|-------- 7-- 7--1010---- 7-- 7--|------------ 7-------------- 7--|
E| 0-- 0--------------------------| 8-- 8-- 8------ 7-- 7--10------|
http://classicalguitartablature.blogspot.com/
E|--------------------------------|--------------------------------|
B|-- 8------ 8--------------------| 8--10------ 7------------------|
G|------ 9-------------- 9--------| 9-- 9------ 8-------------- 9--|
D|--------------------------------|10--10------ 9------------------|
A|------ 7-- 7----10--10-- 7-- 7--|------------ 7-------------- 7--|
E| 0 0----------------------------| 8-- 8-- 8------ 7-- 7--10------|
http://classicalguitartablature.blogspot.com/
E|--------------------------------|--------------------------------|
B| 8 8------ 8---------- 8--------| 8--10---- 7--------------------|
G|------ 9------------------ 9----| 9-- 9--------------------------|
D|--------------------------------|10--10--------------------------|
A|-------- 7-- 7--1010-- 7---- 7--|------------ 7-------------- 7--|
E| 0-- 0--------------------------| 8-- 8-- 8------ 7-- 7--10------|
http://classicalguitartablature.blogspot.com/
E|--------------------------------|--------------------------------|
B| 8-------- 8--------------------| 8 8----10-- 8------ 7----------|
G|------ 9---------- 9------------| 9 9---- 9-- 8------ 8----------|
D|--------------------------------|10--10--10-- 7------ 7----------|
A|------ 7---- 7--1010-- 7-- 7----|------------ 7-------------- 7--|
E| 0-- 0--------------------------| 8-- 8-- 8------ 7-- 7--10------|
http://classicalguitartablature.blogspot.com/
E|--------------------------------|--------------------------------|
B|--------------------------------|--------------------------------|
G|--------------------------------|--------------------------------|
D|--------------------------------|--------------------------------|
A|-------- 7-- 7--10--10-- 7 7----|------------ 7-------------- 7--|
E| 0-- 0--------------------------| 8------ 8------ 7-- 7--10------|
http://classicalguitartablature.blogspot.com/
E|--------------------------------|--------------------------------|
B|--------------------------------|--------------------------------|
G|--------------------------------|--------------------------------|
D|--------------------------------|--------------------------------|
A|-------- 7-- 7--10--10-- 7-- 7--|---------- 7---------------- 7--|
E| 0-- 0--------------------------| 8-- 8 8------ 7---- 7--10------|
http://classicalguitartablature.blogspot.com/
E|--------------------------------|--------------------------------|
B| 2------------------------------|--------------------------------|
G| 0------------------------------|--------------------------------|
D| 2------------------------------|--------------------------------|
A|--------------------------------|--------------------------------|
E| 0------------------------------|--------------------------------|
http://classicalguitartablature.blogspot.com/

0 ความคิดเห็น:

แสดงความคิดเห็น