To celebrate the anniversary, I am giving you (finally...) : iPhone LickByNeck !!!!!!

Take On Me (BASIC)

A-Ha's tune fingerstyle chord melody guitar BASIC arrangement played in the key of A. Take On Me - A-Ha - BASIC ARRANGEMENT played in the key of A
http://classicalguitartablature.blogspot.com/
E| 2 2----------------------------|-------------------------- 7-- 5|
B|------ 3------------------------|---------------- 9-- 910------ 5|
G|------------ 4---- 4-------- 9--|---- 9------ 9-- 9-- 9 9------ 6|
D|---------------------------- 9--|---- 9------ 9-- 9-- 9 9--------|
A| 2------ 2------ 2------ 2------|--------------------------------|
E|--------------------------------| 0------ 0---------- 0-- 0------|
http://classicalguitartablature.blogspot.com/
E|---- 5 5------------------------|------------------------------ 2|
B|---- 5 5---- 5-------------- 7--|---- 7------ 7-- 5 5-- 7---- 5--|
G|---- 6 6---- 6------ 7------ 6--|---- 6------ 6-- 4 4-- 4---- 4--|
D|------------ 7------ 7------ 7--|---- 7------ 7-- 6 6-- 6---- 6--|
A| 0------ 0------ 0------ 0------| 5------ 5------ 4---- 4------ 2|
E|--------------------------------|--------------------------------|
http://classicalguitartablature.blogspot.com/
http://classicalguitartablature.blogspot.com/
E|-- 2----------------------------|-------------------------- 7-- 5|
B|------ 3------------------------|---------------- 9-- 910------ 5|
G|------------ 4------ 4------ 9--|---- 9------ 9-- 9-- 9 9------ 6|
D|---------------------------- 9--|---- 9------ 9-- 9-- 9 9--------|
A|------ 2------ 2------ 2--------|--------------------------------|
E|--------------------------------| 0------ 0---------- 0-- 0------|
http://classicalguitartablature.blogspot.com/
E|---- 5 5------------------------|--------------------------------|
B|---- 5 5---- 5-------------- 7--|---- 7------ 7-- 5 5-- 7---- 5 3|
G|---- 6 6---- 6------ 7------ 6--|---- 6------ 6-- 4 4-- 4---- 4 2|
D|------------ 7------ 7------ 7--|---- 7------ 7-- 6 6-- 6---- 6 4|
A| 0------ 0------ 0------ 0------| 5------ 5------ 4---- 4------ 2|
E|--------------------------------|--------------------------------|
http://classicalguitartablature.blogspot.com/
E|--------------------------------|--------------------------------|
B|---------- 3------ 2------------|---- 0------------------------ 2|
G|---------- 2------------ 4------|---- 1------ 1---- 1------ 1-- 2|
D|---------- 4---------------- 4--|---- 2------ 0-------------- 0--|
A|------------ 2------------------|--------------------------------|
E|--------------------------------| 0---------- 0---------- 0------|
http://classicalguitartablature.blogspot.com/
E|--------------------------------|--------------------------------|
B|---- 2------ 2------------------|---- 7------ 7-- 5------ 7-- 5--|
G|---- 2------ 2------ 2----------|---- 6------ 6-- 4------ 4-- 4--|
D| 2-- 2------ 2------ 2----------|---- 7------ 7-- 6------ 6-- 6--|
A| 0---------- 0-------------- 0--| 5---------- 5-- 4--------------|
E|--------------------------------|--------------------------------|
http://classicalguitartablature.blogspot.com/
E|--------------------------------|--------------------------------|
B| 3---------- 3------ 2-- 0------|---- 0------ 0------ 0----------|
G| 2---------- 2------ 2-- 2------|---- 1------ 1------ 1----------|
D| 0---------- 0------ 0-- 0------|---- 0------ 0------ 0----------|
A| 2---------- 2------------------|--------------------------------|
E|--------------------------------| 0---------- 0------------------|
http://classicalguitartablature.blogspot.com/
E|--------------------------------|--------------------------------|
B| 2-- 2------ 2------------------|-- 7------ 7---- 5---- 7---- 5 3|
G| 2-- 2------ 2------ 2----------|-- 6------ 6---- 4---- 4---- 4--|
D| 2-- 2------ 2------ 2----------|-- 7-------- 7-- 6---- 6---- 6--|
A| 0---------- 0------------ 0-- 5|------------ 5-- 4------ 4------|
E|--------------------------------|--------------------------------|
http://classicalguitartablature.blogspot.com/
E|--------------------------------|--------------------------------|
B|------------ 3------ 3-- 3------|--------------------------------|
G| 2---------- 2------ 2-- 2------|---- 1------ 1------ 1----------|
D| 4---------- 4------ 4-- 4------|---- 0------ 0------ 0------ 0--|
A| 2---------- 2------------------|--------------------------------|
E|------------------------------ 0|------------------------ 0------|
http://classicalguitartablature.blogspot.com/
E|--------------------------------|--------------------------------|
B|--------------------------------|--------------------------------|
G|------ 2-- 2-------- 2------ 2--|---- 1--------------------------|
D|------ 2---- 2------ 2------ 2--|------------ 4------ 2----------|
A|--------------------------------|--------------------------------|
E| 2------------ 2----------------| 0---- 0---------------- 0------|
http://classicalguitartablature.blogspot.com/
E|--------------------------------|------------------------------ 2|
B|--------------------------------| 5------------------------------|
G| 2-- 2------ 2------ 2------ 2 4|---- 4------ 4------ 4------ 4--|
D| 2-- 2------ 2------ 2------ 2 2|---- 2------ 2------ 2------ 2--|
A| 0------ 0------ 0------ 0------|--------------------------------|
E|--------------------------------| 4------ 4------ 4---- 4--------|
http://classicalguitartablature.blogspot.com/
E|--------------------------------|--------------------------------|
B| 2-- 2--------------------------| 5-- 5------ 7------ 5-------- 2|
G| 2-- 2------ 2------ 2------ 2--| 6---------- 6------ 6------ 6--|
D|---- 2------ 2------ 2------ 2--| 7-- 7------ 7------ 7------ 7--|
A|--------------------------------| 5------ 5------ 5---- 5--------|
E| 2------ 2------ 2------ 2------|--------------------------------|
http://classicalguitartablature.blogspot.com/
E|------------------------------ 4|-- 4-------------------------- 5|
B|---- 2-------------------- 0-- 5|-- 5----------------------------|
G| 2-- 2------ 2---- 2------------|-- 4-------- 4------ 4------ 4--|
D|---- 2------ 2---- 2------------|------------ 6------ 6------ 6--|
A| 0------ 0------ 0------ 0------|--------------------------------|
E|--------------------------------| 4------ 4------ 4------ 4------|
http://classicalguitartablature.blogspot.com/
E|--------------------------------|--------------------------------|
B| 2------------------------------| 5-- 5------ 7------ 5-------- 2|
G| 2---------- 2------ 2------ 2--| 6-- 6------ 6------ 6------ 6--|
D|---- 2------ 2------ 2------ 2--| 7-- 7------ 7------ 7------ 7--|
A|--------------------------------| 5------ 5------ 5--------------|
E| 2------ 2------ 2------ 2------|--------------------------------|
http://classicalguitartablature.blogspot.com/
E|------------------------------ 4|-- 4-------------------------- 5|
B|---- 2-------------------- 0-- 5|-- 5----------------------------|
G| 2-- 2------ 2---- 2------------|-- 4-------- 4------ 4------ 4--|
D|---- 2------ 2---- 2------------|------------ 6------ 6------ 6--|
A| 0------ 0------ 0------ 0------|--------------------------------|
E|--------------------------------| 4------ 4------ 4------ 4------|
http://classicalguitartablature.blogspot.com/
E|--------------------------------|------------ 9------------------|
B| 2------------------------------|--------12--12------12--10------|
G| 2---------- 2------ 2------ 2--|----11--11--11------11--11--11--|
D|---- 2------ 2------ 2------ 2--|12--12--------------12----------|
A|--------------------------------|--------------------------------|
E| 2------ 2------ 2------ 2------|10------10------10------10------|
http://classicalguitartablature.blogspot.com/
E|------12------------------------|--------------------------------|
B|10------10----------------------|--------------------------------|
G| 9------------------ 9------ 9--|---- 4------ 4------ 4------ 4--|
D|11--11------11------11------11--|---- 2------ 2------ 2------ 2--|
A| 0------ 0------ 0------ 0------|--------------------------------|
E|--------------------------------| 4------ 4------ 4------ 4------|
http://classicalguitartablature.blogspot.com/
E|--------------------------------|------------------------------ 2|
B|--------------------------------|--------------------------------|
G|---- 2------ 2------ 2------ 2--|---- 2------ 2------ 2------ 2--|
D|---- 2------ 2------ 2------ 2--|---- 4------ 4------ 2------ 2--|
A|--------------------------------| 5------ 5------ 4------ 4---- 2|
E| 2------ 2------ 2------ 2------|--------------------------------|
http://classicalguitartablature.blogspot.com/
E|-- 2----------------------------|-------------------------- 7-- 5|
B|------ 3------------------------|---------------- 9-- 910------ 5|
G|------------ 4------ 4------ 9--|---- 9------ 9-- 9-- 9 9------ 6|
D|---------------------------- 9--|---- 9------ 9-- 9-- 9 9--------|
A|------ 2------ 2------ 2--------|--------------------------------|
E|--------------------------------| 0------ 0---------- 0-- 0------|
http://classicalguitartablature.blogspot.com/
E|---- 5 5------------------------|------------------------------ 2|
B|---- 5 5---- 5-------------- 7--|---- 7------ 7-- 5 5-- 7---- 5--|
G|---- 6 6---- 6------ 7------ 6--|---- 6------ 6-- 4 4-- 4---- 4--|
D|------------ 7------ 7------ 7--|---- 7------ 7-- 6 6-- 6---- 6--|
A| 0------ 0------ 0------ 0------| 5------ 5------ 4---- 4------ 2|
E|--------------------------------|--------------------------------|
http://classicalguitartablature.blogspot.com/
E|-- 2----------------------------|-------------------------- 7-- 5|
B|------ 3------------------------|---------------- 9-- 910--------|
G|------------ 4------ 4------ 9--|---- 9------ 9-- 9-- 9 9--------|
D|---------------------------- 9--|---- 9------ 9-- 9-- 9 9--------|
A|------ 2------ 2------ 2--------|--------------------------------|
E|--------------------------------| 0------ 0---------- 0-- 0------|
http://classicalguitartablature.blogspot.com/
E|------------ 5---------- 5------|--------------------------------|
B| 5---------- 5---------- 5------|--------------------------------|
G| 2---------- 2---------- 2------|--------------------------------|
D|--------------------------------|--------------------------------|
A| 0---------- 0---------- 0------|--------------------------------|
E|--------------------------------|--------------------------------|
http://classicalguitartablature.blogspot.com/

0 ความคิดเห็น:

แสดงความคิดเห็น