To celebrate the anniversary, I am giving you (finally...) : iPhone LickByNeck !!!!!!

With Or Without You (BASIC)

U2's tune fingerstyle chord melody guitar BASIC arrangement played in the key of D. With Or Without You - U2 - BASIC ARRANGEMENT played in the key of D
http://classicalguitartablature.blogspot.com/
E|--------------------------------|--------------------------------|
B| 3------------------------------|--------------------------------|
G| 2---- 2-------- 2------ 2------| 2------ 2---- 2-------- 2------|
D| 4---- 4-------- 4------ 4------| 2------ 2------ 2------ 2------|
A| 5 5-- 5---- 5-- 5-- 5-- 5-- 5--| 0-- 0-- 0-- 0-- 0-- 0-- 0-- 0--|
E|--------------------------------|--------------------------------|
http://classicalguitartablature.blogspot.com/
E|--------------------------------|--------------------------------|
B| 3------------------------------|--------------------------------|
G| 4------ 4------ 4------ 4-- 4--| 0------ 0------ 0---- 0--------|
D| 4------ 4------ 4------ 4-- 4--| 0------ 0------ 0---- 0--------|
A| 2-- 2-- 2-- 2-- 2-- 2-- 2-- 2--|--------------------------------|
E|--------------------------------| 3-- 3-- 3-- 3-- 3-- 3 3---- 3--|
http://classicalguitartablature.blogspot.com/
http://classicalguitartablature.blogspot.com/
E|--------------------------------|--------------------------------|
B| 3------------------------------|--------------------------------|
G| 2------ 2------ 2---- 2------ 2|------ 2------ 2------ 2--------|
D| 4------ 4------ 4---- 4--------| 2---- 2------ 2------ 2--------|
A| 5-- 5-- 5-- 5-- 5-- 5-- 5 5----| 0 0-- 0-- 0-- 0-- 0-- 0-- 0----|
E|--------------------------------|--------------------------------|
http://classicalguitartablature.blogspot.com/
E|--------------------------------|--------------------------------|
B| 3------------------------------|--------------------------------|
G| 4------ 4------ 4------ 4-- 4--| 0------ 0------ 0---- 0--------|
D| 4------ 4------ 4------ 4-- 4--| 0------ 0------ 0---- 0--------|
A| 2-- 2-- 2-- 2-- 2-- 2-- 2-- 2--|--------------------------------|
E|--------------------------------| 3-- 3-- 3-- 3-- 3-- 3 3---- 3--|
http://classicalguitartablature.blogspot.com/
E|-------------------- 2---- 2----|---------------------------- 2--|
B|-------------------- 3---- 2----|---- 5------ 3---- 5-------- 3--|
G| 2------ 2------ 2-------- 2----|---- 2------ 2---- 2-------- 4--|
D| 4------ 4------ 4--------------|---- 2------ 2---- 2------------|
A| 5-- 5-- 5-- 5-- 5-- 5-- 5------| 0-- 0-- 0-- 0-- 0-- 0-- 0------|
E|--------------------------------|--------------------------------|
http://classicalguitartablature.blogspot.com/
E|-------------------- 2-- 3-- 2--|-- 0-------------- 0------------|
B|-------- 3------ 3-- 3-- 3-- 0--|-- 0------ 3------ 0------ 3----|
G|-------- 4------ 4------ 4------|-- 0------ 0------ 0------------|
D|--------------------------------|---------- 0--------------------|
A| 2-- 2-- 2-- 2-- 2-- 2-- 2-- 2--|------------------------------ 5|
E|--------------------------------| 3-- 3-- 3 3---- 3 3---- 3-- 3--|
http://classicalguitartablature.blogspot.com/
E|---------------------------- 5--|--------------------------------|
B|------------------ 3-- 3--------|--------------------------------|
G|------ 2------ 2-- 2-- 2--------|-------- 2------ 2-- 2-- 2-- 4--|
D|------ 4-------- 4 4-- 4--------|-------- 2------ 2-- 2-- 2------|
A|---- 5-- 5 5---- 5-- 5-- 5-- 5--| 0-- 0-- 0-- 0-- 0-- 0-- 0-- 0--|
E|--------------------------------|--------------------------------|
http://classicalguitartablature.blogspot.com/
E|---- 2--------------------------|--------------------------------|
B|---- 3--------------------------|--------------------------------|
G|-------------- 4-------- 4------|------ 0------ 0-------- 0------|
D|---------------------- 4------ 0|------ 0------ 0-------- 0------|
A| 2-- 2-- 2-- 2-- 2-- 2-- 2-- 2--|--------------------------------|
E|--------------------------------| 3-- 3-- 3-- 3-- 3-- 3-- 3-- 3--|
http://classicalguitartablature.blogspot.com/
E|-------------------- 2---- 2----|---------------------------- 2--|
B|-------------------- 3---- 2----|---- 5------ 3---- 5-------- 3--|
G| 2------ 2------ 2-------- 2----|---- 2------ 2---- 2-------- 4--|
D| 4------ 4------ 4--------------|---- 2------ 2---- 2------------|
A| 5-- 5-- 5-- 5-- 5-- 5-- 5------| 0-- 0-- 0-- 0-- 0-- 0-- 0------|
E|--------------------------------|--------------------------------|
http://classicalguitartablature.blogspot.com/
E|-------------------- 2-- 3-- 2--|-- 0-------------- 0------------|
B|-------- 3------ 3-- 3-- 3-- 0--|-- 0------ 3------ 0------ 3----|
G|-------- 4------ 4------ 4------|-- 0------ 0------ 0------------|
D|--------------------------------|---------- 0--------------------|
A| 2-- 2-- 2-- 2-- 2-- 2-- 2-- 2--|------------------------------ 5|
E|--------------------------------| 3-- 3-- 3 3---- 3 3---- 3-- 3--|
http://classicalguitartablature.blogspot.com/
E|---------------------------- 5--|--------------------------------|
B|------------------ 3-- 3--------|--------------------------------|
G|------ 2------ 2-- 2-- 2--------|-------- 2------ 2-- 2-- 2-- 4--|
D|------ 4-------- 4 4-- 4--------|-------- 2------ 2-- 2-- 2------|
A|---- 5-- 5 5---- 5-- 5-- 5-- 5--| 0-- 0-- 0-- 0-- 0-- 0-- 0-- 0--|
E|--------------------------------|--------------------------------|
http://classicalguitartablature.blogspot.com/
E|-- 2----------------------------|---------------------------- 0--|
B|-- 3----------------------------|---------------- 3-- 3-- 3------|
G|-------------- 4-------- 4---- 0|-------- 0------ 0-- 0-- 0------|
D|-------------- 4-------- 4------| 0------ 0------ 0-- 0-- 0------|
A| 2-- 2-- 2-- 2-- 2-- 2------ 2--|--------------------------------|
E|--------------------------------| 3-- 3-- 3-- 3-- 3-- 3-- 3-- 3--|
http://classicalguitartablature.blogspot.com/
E|---- 2--------------------------|---------------------- 5---- 3--|
B|---- 3--------------------------|---------------- 5-- 5----------|
G|---- 2-------- 2-------- 2------| 2------ 2------ 2-- 2----------|
D|-------------- 4-------- 4------| 2------ 2------ 2-- 2----------|
A| 5-- 5-- 5-- 5-- 5-- 5-- 5-- 5--| 0-- 0-- 0-- 0-- 0-- 0-- 0-- 0 2|
E|--------------------------------|--------------------------------|
http://classicalguitartablature.blogspot.com/
E|-- 2-------------- 0-------- 0--|------------------------------ 0|
B|---------------------- 3--------|-- 3-------------- 3-- 3---- 3--|
G|---- 4--------------------------|-- 0-------------- 0-- 0-- 0-- 2|
D|--------------------------------|---- 0------------ 0-- 0-- 0----|
A|---- 2-- 2-- 2 2-- 2---- 2 2----|--------------------------------|
E|--------------------------------| 3-- 3-- 3 3---- 3-- 3-- 3-- 3--|
http://classicalguitartablature.blogspot.com/
E|--------------------------------|------------------------------ 0|
B| 3-------- 3---- 3-- 0----------|-------------------- 3-- 3-- 3 3|
G|---------- 2---- 2 2-------- 2--|-------- 2------ 2-- 2-- 2-- 2 4|
D|---------- 4---- 4--------------|-------- 2------ 2-- 2-- 2-- 2--|
A| 5 5---- 5-- 5-- 5-- 5-- 5-- 5--| 0-- 0-- 0-- 0-- 0-- 0-- 0-- 0--|
E|--------------------------------|--------------------------------|
http://classicalguitartablature.blogspot.com/
E|--------------------------------|---------------------------- 0--|
B|------------ 3 3----------------|------------------ 3---- 3------|
G|------------ 4 4-- 4------ 2----|-------------------- 2-- 2------|
D|------------ 4 4----------------|-------- 0------ 0-- 0-- 0------|
A| 2-- 2-- 2-- 2-- 2 2-- 2-- 2----|--------------------------------|
E|------------------------------ 3|-- 3---- 3-- 3-- 3-- 3-- 3-- 3--|
http://classicalguitartablature.blogspot.com/
E|---------------------------- 0--|---------------------------- 0--|
B|-------------------- 3-- 3-- 2--|------------------ 3---- 3------|
G|------ 2------ 2---- 2-- 2-- 2--|-------------------- 2-- 2------|
D|------ 4-------- 4-- 4-- 4------|-------------------- 2-- 2------|
A| 5-- 5-- 5-- 5-- 5-- 5-- 5------| 0-- 0-- 0-- 0-- 0-- 0-- 0------|
E|--------------------------------|--------------------------------|
http://classicalguitartablature.blogspot.com/
E|---------------------------- 0--|------------------------------ 5|
B|------------------ 3-- 3---- 3--|------ 3-------- 3---- 3------ 7|
G|-------- 4---- 4-- 4-- 4---- 0--|------ 0-------- 0------ 0---- 7|
D|-------- 4---- 4-- 4-- 4--------|------ 0-------- 0------ 0------|
A| 2-- 2-- 2-- 2-- 2-- 2 2--------|--------------------------------|
E|--------------------------------| 3-- 3-- 3-- 3-- 3-- 3-- 3-- 3--|
http://classicalguitartablature.blogspot.com/
E|--------------------------------|--------------------------------|
B|---------- 8------ 7------ 5----|------------------------------10|
G|------------ 7---- 7------------|------ 2------ 2------ 2------ 7|
D|--------------------------------|------ 2------ 2------ 2------ 7|
A| 5-- 5 5-- 5---- 5 5-- 5---- 5 0|---- 0-- 0-- 0-- 0-- 0-- 0-- 0--|
E|--------------------------------|--------------------------------|
http://classicalguitartablature.blogspot.com/
E|--------------------------------|------------------------------ 5|
B|------------ 8---- 7-------- 3--|------------------------------ 7|
G|------------ 7---- 7------------|------ 0------ 0------ 0------ 7|
D|------------ 7---- 7------------|------ 0-------- 0---- 0--------|
A|--------------------------------|--------------------------------|
E| 7-- 7-- 7-- 7-- 7-- 7-- 7-- 7 3|-- 3-- 3---- 3-- 3-- 3-- 3-- 3--|
http://classicalguitartablature.blogspot.com/
E|--------------------------------|-------------------------- 0----|
B|---------- 8------ 7------ 5----|------------------ 5-- 3--------|
G|------------ 7---- 7------------|------ 2-------------- 2--------|
D|--------------------------------|------ 2---------- 2-- 2--------|
A| 5-- 5 5-- 5---- 5 5-- 5---- 5--| 0-- 0-- 0 0---- 0 0---- 0-- 0 2|
E|--------------------------------|--------------------------------|
http://classicalguitartablature.blogspot.com/
E|--------------------------------|------10------10------10--------|
B|-- 3----------------------------|---- 8---- 8------ 8------ 7----|
G|-- 4---------- 4------ 4--------|---- 7---- 7-------- 7----------|
D|-------------- 4-------- 4------|--------------------------------|
A|---- 2-- 2-- 2-- 2-- 2-- 2-- 210|--10----10--1010----1010----10--|
E|--------------------------------|------------------------------10|
http://classicalguitartablature.blogspot.com/
E|--------------------------------|------10------10------10--------|
B|-------------------------- 8----|-- 8-- 8-- 8-- 8-- 8-- 8-- 7----|
G|---------- 7--------------------|-- 7-- 7-- 7-- 7-- 7-- 7--------|
D|---------- 7--------------------|-- 7------ 7------ 7------------|
A|--------------------------------| 0-- 0-- 0-- 0-- 0-- 0-- 0-- 0--|
E|--10----1010--10----10--10--10--|------------------------------ 7|
http://classicalguitartablature.blogspot.com/
E|--------------------------------|------10------10------10--------|
B|---------------------------- 8--|-- 8------ 8------ 8------ 7----|
G|------------ 7------------------|-- 7-- 7-- 7------ 7------------|
D|------------ 7------------------|--------------------------------|
A|------------------------------10|----1010--10--10--10--10--10----|
E|---- 7 7---- 7-- 7-- 7-- 7-- 7--|------------------------------10|
http://classicalguitartablature.blogspot.com/
E|--------------------------------|------10------10------10--------|
B|-------------------------- 8----|-- 8-- 8-- 8-- 8-- 8-- 8-- 7----|
G|---------- 7--------------------|-- 7-- 7-- 7-- 7-- 7-- 7--------|
D|---------- 7--------------------|-- 7------ 7------ 7------------|
A|--------------------------------| 0-- 0-- 0-- 0-- 0-- 0-- 0-- 0--|
E|--10----1010--10----10--10--10--|------------------------------ 7|
http://classicalguitartablature.blogspot.com/
E|--------------------------------|------10------------------------|
B|---------------------------- 8--|-- 8------ 8-------------- 7----|
G|------------ 7------------------|-------------- 9---- 9---- 7----|
D|------------ 7------------------|-------------------------- 7----|
A|------------------------------10|--10--10--10--10---- 9------ 7 5|
E|---- 7 7---- 7-- 7-- 7-- 7-- 7--|--------------------------------|
http://classicalguitartablature.blogspot.com/
E| 0------------------------------|--------------------------------|
B| 3------ 3----------------------|--------------------------------|
G| 2------ 2----------------------|--------------------------------|
D|-------- 4----------------------|--------------------------------|
A|--------------------------------|--------------------------------|
E|--------------------------------|--------------------------------|
http://classicalguitartablature.blogspot.com/

0 ความคิดเห็น:

แสดงความคิดเห็น