To celebrate the anniversary, I am giving you (finally...) : iPhone LickByNeck !!!!!!

25 Or 6 To 4 (BASIC)

Chicago's tune fingerstyle chord melody guitar BASIC arrangement played in the key of Am. 25 or 6 to 4-Chicago-BASIC ARRANGEMENT played In the key of Am
http://classicalguitartablature.blogspot.com/
E|--------------------------------|--------------------------------|
B|--------------------------------|--------------------------------|
G| 2-------------- 2--------------| 0-------------- 0--------------|
D| 2-------------- 2--------------| 0-------------- 0--------------|
A| 0-- 0-- 0-- 0-- 0--------------|--------------------------------|
E|--------------------------------| 3-- 3-- 3-- 3-- 3--------------|
http://classicalguitartablature.blogspot.com/
E|--------------------------------|--------------------------------|
B|--------------------------------|--------------------------------|
G| 2-------------- 2--------------| 2-------------- 1--------------|
D| 0-------------- 0--------------| 3-------------- 0--------------|
A|--------------------------------|--------------------------------|
E| 2-- 2-- 2-- 2-- 2--------------| 1-- 1-- 1-- 1-- 0-- 0-- 0-- 0--|
http://classicalguitartablature.blogspot.com/
http://classicalguitartablature.blogspot.com/
E|--------------------------------|--------------------------------|
B|--------------------------------|--------------------------------|
G| 2-------------- 2--------------| 0-------------- 0--------------|
D| 2------------------------------| 0-------------- 0--------------|
A| 0-- 0-- 0-- 0-- 0--------------|--------------------------------|
E|--------------------------------| 3-- 3-- 3-- 3-- 3--------------|
http://classicalguitartablature.blogspot.com/
E|--------------------------------|--------------------------------|
B|--------------------------------|--------------------------------|
G| 2-------------- 2--------------| 2-------------- 1--------------|
D| 0-------------- 0--------------| 3-------------- 0--------------|
A|--------------------------------|--------------------------------|
E| 2-- 2-- 2-- 2-- 2--------------| 1-- 1-- 1-- 1-- 0-- 0-- 0-- 0--|
http://classicalguitartablature.blogspot.com/
E|--------------------------------|--------------------------------|
B| 0------ 0-------------- 0------|-------------------- 0------ 3--|
G|------------ 2 0---- 0----------| 2-------------- 2------ 2------|
D|---- 2---------- 2---------- 2--|--------------------------------|
A| 0------------------------------|-------- 3----------------------|
E|--------------------------------| 3------------------------------|
http://classicalguitartablature.blogspot.com/
E|--------------------------------| 0------------------------------|
B|------------ 3---------------- 1|------------ 1-- 0--------------|
G|-------- 2---------- 2------ 2 2|-------- 2-------------- 1------|
D|---- 0------------------ 0------| 3-- 3-------- 0---- 0------ 0--|
A|--------------------------------|--------------------------------|
E| 2------------------------------| 1-------------- 0--------------|
http://classicalguitartablature.blogspot.com/
E|------------------------ 5-- 7--| 5-- 5-- 3---- 2-- 2 2 2 2------|
B|------------ 5-- 7-- 8-- 5-- 5--| 0-- 0-- 0----------------------|
G| 4-- 5-- 7-- 5-- 5-- 5-- 5-- 5--| 0-- 0-- 0----------------------|
D| 7-- 7-- 7-- 7-- 7-- 7----------|--------------------------------|
A| 0------------------------------|--------------------------------|
E|--------------------------------| 3------------------------------|
http://classicalguitartablature.blogspot.com/
E|--------------------------------|--------------------------------|
B|-------------------- 0------ 3--|------------ 3-------------- 3--|
G| 2-------------- 2------ 2------|-------- 2-------------- 1------|
D|------------ 0------------------|---- 3-------------- 0----------|
A|-------- 3----------------------|--------------------------------|
E| 2------------------------------| 1-------------- 0--------------|
http://classicalguitartablature.blogspot.com/
E|--------------------------------|------------ 0------ 3------ 5--|
B|-------------------- 0------ 1--|---- 3---- 1---------------- 5--|
G|---------------- 2--------------|---------------------------- 5--|
D|--------------------------------|--------------------------------|
A| 0-- 0-- 0-- 0-- 0--------------|--------------------------------|
E|--------------------------------| 3-- 3-- 3-- 3-- 3--------------|
http://classicalguitartablature.blogspot.com/
E|--------------------------------|-------- 0-------------- 3------|
B|---------------------------- 5--|-- 0 1 3---------------- 3------|
G|------------------------ 5------| 2-------------- 1------ 1------|
D|-------------------- 4----------|---------------- 0--------------|
A|--------------------------------|--------------------------------|
E| 2-- 2-- 2-- 2-- 2--------------| 1------ 1------ 0-- 0-- 0-- 0--|
http://classicalguitartablature.blogspot.com/
E|--------------------------------|------------ 0------ 3------ 5--|
B|-------------------- 0------ 1--|---- 3---- 1---------------- 5--|
G|---------------- 2--------------|---------------------------- 5--|
D|--------------------------------|--------------------------------|
A| 0-- 0-- 0-- 0-- 0--------------|--------------------------------|
E|--------------------------------| 3-- 3-- 3-- 3-- 3--------------|
http://classicalguitartablature.blogspot.com/
E|--------------------------------|-------- 0-------------- 3------|
B|---------------------------- 5--|-- 0 1 3---------------- 3------|
G|------------------------ 5------| 2-------------- 1------ 1------|
D|-------------------- 4----------|---------------- 0--------------|
A|--------------------------------|--------------------------------|
E| 2-- 2-- 2-- 2-- 2--------------| 1------ 1------ 0-- 0-- 0-- 0--|
http://classicalguitartablature.blogspot.com/
E|---------------- 5-- 7---- 8----|-- 7------ 5------ 7------------|
B|---------------- 5-- 5------ 0--|-- 0------ 0------ 0------------|
G|---------------- 5-- 5------ 0--|---- 0---- 0------ 0------------|
D|--------------------------------|--------------------------------|
A| 0-- 0-- 0-- 0-- 0--------------|--------------------------------|
E|--------------------------------| 3-- 3-- 3 3---- 3--------------|
http://classicalguitartablature.blogspot.com/
E|---------- 3-- 0----------------|---------------- 0--------------|
B|---------------------------- 0--| 1-------------- 0--------------|
G|---------------------- 5--------| 2-------------- 1--------------|
D|------------------ 4------------| 3------------------------------|
A|--------------------------------|--------------------------------|
E| 2-- 2-- 2 2---- 2--------------| 1-- 1-- 1-- 1-- 0-- 0-- 0-- 0--|
http://classicalguitartablature.blogspot.com/
E|--------------------------------|------------ 0------ 3------ 5--|
B|-------------------- 0------ 1--|---- 3---- 1---------------- 5--|
G| 2-------------- 2--------------|---------------------------- 5--|
D| 2------------------------------|--------------------------------|
A| 0-- 0-- 0-- 0-- 0--------------|--------------------------------|
E|--------------------------------| 3-- 3-- 3-- 3-- 3--------------|
http://classicalguitartablature.blogspot.com/
E|--------------------------------|-------- 0-------------- 3------|
B|---------------------------- 5--|-- 0 1 3---------------- 3------|
G|------------------------ 5------| 2-------------- 1------ 1------|
D|-------------------- 4----------|---------------- 0--------------|
A|--------------------------------|--------------------------------|
E| 2-- 2-- 2-- 2-- 2--------------| 1------ 1------ 0-- 0-- 0-- 0--|
http://classicalguitartablature.blogspot.com/
E|---------------- 5-- 7------ 8--|---- 7------ 5------ 7----------|
B|------------ 5------------------|--------------------------------|
G|-------- 5----------------------|----------------------------12--|
D|---- 7--------------------------|--------------------------------|
A| 8------------------------------|--------------------------------|
E|--------------------------------|-------- 5------ 6------ 7------|
http://classicalguitartablature.blogspot.com/
E|--------12------------11--------|--10---------- 8----------------|
B|--------------------------------|--------------------------------|
G|----------------12--11------11--|10------10 9--------------------|
D|--------------------------------|--------------------------------|
A|--------------------------------|---------------- 7-- 8-- 9------|
E| 8------------------------------|--------------------------------|
http://classicalguitartablature.blogspot.com/
E|-------------- 3---- 5------ 3--|-------------------- 3------ 1--|
B|---------- 3-- 3---- 3------ 3--|---- 6------ 5------------------|
G|-------- 4---- 4---- 4------ 4--|---- 4------ 4------------------|
D|---- 5--------------------------|---- 5------ 5------------------|
A|--------------------------------|--------------------------------|
E| 3------------------------------| 3------------------------------|
http://classicalguitartablature.blogspot.com/
E|--------------------------------| 5------------------------------|
B|-------------------- 1----------|------------------ 1------------|
G|------------ 2---------- 2------|------------ 2---------- 2------|
D|-------- 3------------------ 3--|-------- 3-------------------- 2|
A|--------------------------------|--------------------------------|
E| 1------------------------------| 1------------------------------|
http://classicalguitartablature.blogspot.com/
E|--------------------------------|--------------------------------|
B|-------------- 0---------- 0-- 1|---------- 0 1 3---------- 1 3--|
G| 2-------- 0 2---------- 2------| 0-------- 0--------------------|
D|---- 2---------------- 2--------| 0-------- 0--------------------|
A| 0-------- 0--------------------|--------------------------------|
E|--------------------------------| 3-- 3---- 3--------------------|
http://classicalguitartablature.blogspot.com/
E|---------------- 2-------- 0 3--| 5-------------- 0--------------|
B| 5---------- 3 3----------------| 1------------ 0------ 3--------|
G| 5------------------------------| 2-------- 2-- 1------ 1--------|
D| 4------------------------------|--------------------------------|
A|--------------------------------|--------------------------------|
E| 2-- 2------ 2------------------| 1-- 1------ 1-- 0-- 0-- 0-- 0--|
http://classicalguitartablature.blogspot.com/
E| 5-- 5-- 5 5------ 5------ 5----|-- 5-- 5------------------------|
B| 5-- 5-- 5 5------ 5------ 5----|-- 5-- 5------------------ 5----|
G| 5-- 5 5-- 5------ 5------ 5----|-- 5-- 5-------------- 5--------|
D|--------------------------------|------------------ 5------------|
A|--------------------------------|--------------------------------|
E| 5-- 5------ 5-- 5------------ 3|---- 3------ 3 3----------------|
http://classicalguitartablature.blogspot.com/
E| 5-- 5 5---- 5------ 5------ 5--|-- 5-- 5------------------------|
B| 5-- 5 5---- 5------ 5------ 1--|-- 1-- 1------------------------|
G| 5-- 5------ 5------ 5------ 2--|-- 2-- 2-------------------- 2--|
D|--------------------------------|---------------------- 3--------|
A|--------------------------------|--------------------------------|
E| 2-- 2------ 2-- 2--------------| 1-- 1------ 1-- 0--------------|
http://classicalguitartablature.blogspot.com/
E|--------------------------------|------------ 0------ 3------ 5--|
B|-------------------- 0------ 1--|---- 3---- 1---------------- 5--|
G|---------------- 2--------------|---------------------------- 5--|
D|--------------------------------|--------------------------------|
A| 0-- 0-- 0-- 0-- 0--------------|--------------------------------|
E|--------------------------------| 3-- 3-- 3-- 3-- 3--------------|
http://classicalguitartablature.blogspot.com/
E|--------------------------------|-------- 0-------------- 3------|
B|---------------------------- 5--|-- 0 1 3---------------- 3------|
G|------------------------ 5------| 2-------------- 1------ 1------|
D|-------------------- 4----------|---------------- 0--------------|
A|--------------------------------|--------------------------------|
E| 2-- 2-- 2-- 2-- 2--------------| 1------ 1------ 0-- 0-- 0-- 0--|
http://classicalguitartablature.blogspot.com/
E|--------------------------------|------------ 0------ 3------ 5--|
B|-------------------- 0------ 1--|---- 3---- 1---------------- 5--|
G|---------------- 2--------------|---------------------------- 5--|
D|--------------------------------|--------------------------------|
A| 0-- 0-- 0-- 0-- 0--------------|--------------------------------|
E|--------------------------------| 3-- 3-- 3-- 3-- 3--------------|
http://classicalguitartablature.blogspot.com/
E|--------------------------------|-------- 0-------------- 3------|
B|---------------------------- 5--|-- 0 1 3---------------- 3------|
G|------------------------ 5------| 2-------------- 1------ 1------|
D|-------------------- 4----------|---------------- 0--------------|
A|--------------------------------|--------------------------------|
E| 2-- 2-- 2-- 2-- 2--------------| 1------ 1------ 0-- 0-- 0-- 0--|
http://classicalguitartablature.blogspot.com/
E|---------------- 5-- 7---- 8----|-- 7------ 5------ 7------------|
B|---------------- 5-- 5------ 0--|-- 0------ 0------ 0------------|
G|---------------- 5-- 5------ 0--|---- 0---- 0------ 0------------|
D|--------------------------------|--------------------------------|
A| 0-- 0-- 0-- 0-- 0--------------|--------------------------------|
E|--------------------------------| 3-- 3-- 3 3---- 3--------------|
http://classicalguitartablature.blogspot.com/
E|---------- 3-- 0----------------|---------------- 0--------------|
B|---------------------------- 0--| 1-------------- 0--------------|
G|---------------------- 5--------| 2-------------- 1--------------|
D|------------------ 4------------| 3------------------------------|
A|--------------------------------|--------------------------------|
E| 2-- 2-- 2 2---- 2--------------| 1-- 1-- 1-- 1-- 0-- 0-- 0-- 0--|
http://classicalguitartablature.blogspot.com/
E|--------------------------------|------------ 0------ 3------ 5--|
B|-------------------- 0------ 1--|---- 3---- 1---------------- 5--|
G| 2-------------- 2--------------|---------------------------- 5--|
D| 2------------------------------|--------------------------------|
A| 0-- 0-- 0-- 0-- 0--------------|--------------------------------|
E|--------------------------------| 3-- 3-- 3-- 3-- 3--------------|
http://classicalguitartablature.blogspot.com/
E|--------------------------------|-------- 0-------------- 3------|
B|---------------------------- 5--|-- 0 1 3---------------- 3------|
G|------------------------ 5------| 2-------------- 1------ 1------|
D|-------------------- 4----------|---------------- 0--------------|
A|--------------------------------|--------------------------------|
E| 2-- 2-- 2-- 2-- 2--------------| 1------ 1------ 0-- 0-- 0-- 0--|
http://classicalguitartablature.blogspot.com/
E|---------------- 5-- 7------ 8--|---- 7------ 5------ 7----------|
B|------------ 5------------------|--------------------------------|
G|-------- 5----------------------|----------------------------12--|
D|---- 7--------------------------|--------------------------------|
A| 8------------------------------|--------------------------------|
E|--------------------------------|-------- 5------ 6------ 7------|
http://classicalguitartablature.blogspot.com/
E|--------12------------11--------|--10---------- 8----------------|
B|--------------------------------|--------------------------------|
G|----------------12--11------11--|10------10 9--------------------|
D|--------------------------------|--------------------------------|
A|--------------------------------|---------------- 7-- 8-- 9------|
E| 8------------------------------|--------------------------------|
http://classicalguitartablature.blogspot.com/
E|-------------- 3---- 5------ 3--|-------------------- 3------ 1--|
B|---------- 3-- 3---- 3------ 3--|---- 6------ 5------------------|
G|-------- 4---- 4---- 4------ 4--|---- 4------ 4------------------|
D|---- 5--------------------------|---- 5------ 5------------------|
A|--------------------------------|--------------------------------|
E| 3------------------------------| 3------------------------------|
http://classicalguitartablature.blogspot.com/
E|--------------------------------| 5------------------------------|
B|-------------------- 1----------|------------------ 1------------|
G|------------ 2---------- 2------|------------ 2---------- 2------|
D|-------- 3------------------ 3--|-------- 3----------------------|
A|--------------------------------|--------------------------------|
E| 1------------------------------| 1------------------------------|
http://classicalguitartablature.blogspot.com/
E|--------------------------------|--------------------------------|
B| 0------ 0-------------- 0------|-------------------- 0------ 3--|
G|------------ 2 0---- 0----------| 2-------------- 2------ 2------|
D|---- 2---------- 2---------- 2--|--------------------------------|
A| 0------------------------------|-------- 3----------------------|
E|--------------------------------| 3------------------------------|
http://classicalguitartablature.blogspot.com/
E|--------------------------------| 0------------------------------|
B|------------ 3---------------- 1|------------ 1-- 0--------------|
G|-------- 2---------- 2------ 2 2|-------- 2-------------- 1------|
D|---- 0------------------ 0------| 3-- 3-------- 0---- 0------ 0--|
A|--------------------------------|--------------------------------|
E| 2------------------------------| 1-------------- 0--------------|
http://classicalguitartablature.blogspot.com/
E|------------------------ 5-- 7--| 5-- 5-- 3---- 2-- 2 2 2 2------|
B|------------ 5-- 7-- 8-- 5-- 5--| 0-- 0-- 0----------------------|
G| 4-- 5-- 7-- 5-- 5-- 5-- 5-- 5--| 0-- 0-- 0----------------------|
D| 7-- 7-- 7-- 7-- 7-- 7----------|--------------------------------|
A| 0------------------------------|--------------------------------|
E|--------------------------------| 3------------------------------|
http://classicalguitartablature.blogspot.com/
E|--------------------------------|--------------------------------|
B|-------------------- 0------ 3--|------------ 3-------------- 3--|
G| 2-------------- 2------ 2------|-------- 2-------------- 1------|
D|------------ 0------------------|---- 3-------------- 0----------|
A|-------- 3----------------------|--------------------------------|
E| 2------------------------------| 1-------------- 0--------------|
http://classicalguitartablature.blogspot.com/
E| 5------------------------------|10------------------------------|
B| 5---------------------- 5------|10----------------------10------|
G| 5------------------ 5------ 5--| 8---------------- 8-------- 8--|
D|--------------------------------|--------------------------------|
A| 5-- 5-- 5-- 5-- 5--------------|--------------------------------|
E|--------------------------------| 8-- 8-- 8-- 8-- 8--------------|
http://classicalguitartablature.blogspot.com/
E|10------------------------------|---------- 7--------------------|
B| 9------------------------------|---------- 6--------------------|
G| 8------------------------------|---------- 7--------------------|
D|--------------------------------|--------------------------------|
A|--------------------------------|--------------------------------|
E| 7---- 7-- 7---- 7---- 7-- 7----| 7-- 7------ 6-- 6---- 6------ 6|
http://classicalguitartablature.blogspot.com/
E|----------------------13--------|--------14----------------------|
B|----------------------12--------|--------12----------------------|
G|----------------------10--------|------13------------------------|
D|--------------------------------|------13------------------------|
A|--------------------------------|---- 0--------------------------|
E|------ 6---- 6------------------|--------------------------------|
http://classicalguitartablature.blogspot.com/

0 ความคิดเห็น:

แสดงความคิดเห็น