To celebrate the anniversary, I am giving you (finally...) : iPhone LickByNeck !!!!!!
0 com

Time After Time

Cyndi Lauper's hit fingerstyle solo guitar arrangement played in the key of C. Time After Time played in the key of C.
http://classicalguitartablature.blogspot.com/
E|------------ 8---------- 7------|------------------------ 3------|
B|------------------------ 6------|------------10---------- 3------|
G|--------10----------10------ 5--|------ 4------------ 7-- 4------|
D|----10----------10--------------|---- 5---------- 9---------- 5--|
A| 8------------------------------|------------ 8---------- 5------|
E|------------ 8---------- 5------| 3------------------------------|
http://classicalguitartablature.blogspot.com/
E|------------ 5------ 3 1--------|--------------------------------|
B|------------ 5------ 3 1---- 5 5|-- 6-- 5---------------- 3------|
G| 7---------- 4------ 2 2---- 4 5|-- 5-- 5-- 5-------- 5-- 2------|
D|---- 5---------------------- 5 7|---- 6 3-- 3---- 3---------- 3--|
A|---------------------------- 5--|--------------------------------|
E| 7------ 5------ 3-- 1-- 0------| 8-- 6-- 5-- 4---------- 3------|
http://classicalguitartablature.blogspot.com/
http://classicalguitartablature.blogspot.com/
E|------------------------ 0------|--------------------------------|
B| 3-------- 1--------------------| 3---------- 1-------- 1------ 3|
G| 2---- 2-- 0-------- 0----------| 5------ 5-- 0---- 0-- 0------ 2|
D|-- 3------------ 2--------------|---- 3-------- 2----------------|
A| 3-------- 3--------------------| 5-------- 3--------------------|
E|--------------------------------|------------ 0---------------- 1|
http://classicalguitartablature.blogspot.com/
E|--------------------------------|---------- 0--------------------|
B|---------- 1---------- 1------ 3|---- 5---- 1-------------- 1-- 3|
G|------ 2---- 0---- 0-- 0------ 5|---- 7---- 0---------- 0------ 5|
D|---- 0------ 2-- 2-------- 2-- 3|---- 5------------ 2------------|
A|--------------------------------|-------------- 3-------------- 5|
E|------------ 3---------------- 5|---- 7--------------------------|
http://classicalguitartablature.blogspot.com/
E|------------------------ 0------|--------------------------------|
B|---------- 1--------------------| 3---------- 1-------- 1--------|
G|------ 5---- 0------ 0----------| 5------ 5-- 0---- 0------------|
D|-- 3------------ 2---------- 2--|---- 3---------- 2---------- 2--|
A|------------ 3------------------|--------------------------------|
E|--------------------------------| 5---------- 3------------------|
http://classicalguitartablature.blogspot.com/
E|--------------------------------|------------ 0------------------|
B| 3---------- 1---------- 1------| 3-- 5------ 1-------------- 3--|
G| 2------ 2---------- 0-- 0------| 5-- 4------ 0------------------|
D|---- 0------ 2-- 2---------- 2--| 3-- 3-------------- 2----------|
A|--------------------------------| 5-- 4---------- 3------ 2------|
E| 1---------- 0------------------|--------------------------------|
http://classicalguitartablature.blogspot.com/
E|--------------------------------|--------------------------------|
B|------------ 3------------------| 0---------- 1------------------|
G| 5---------- 0------ 0----------| 0------ 4-- 2------ 2----------|
D|---- 3---------- 0---------- 0--|---- 0-- 5------ 3---------- 0--|
A|--------------------------------|-------- 5-- 3---------- 2------|
E| 5------ 4-- 3---------- 1------| 0------------------------------|
http://classicalguitartablature.blogspot.com/
E|--------------------------------|--------------------------------|
B|---------------- 1---- 0 0------|---------------------- 3--------|
G|-------- 5------ 0------ 0------| 0-------------- 4------ 5------|
D|---- 3------ 3------ 0------ 0--|---- 0------ 2------ 2------ 3--|
A|--------------------------------|--------------------------------|
E| 5------ 4------ 3------ 1------| 0------ 1------ 3------ 4------|
http://classicalguitartablature.blogspot.com/
E|--------------------------------|--------------------------------|
B|------------ 3------------------|--------------------------------|
G| 5---------- 4------ 4------ 7--| 4------ 4-- 5------ 5----------|
D| 7-------------- 5---------- 9--|---- 2-- 3-- 3-- 3---------- 3--|
A|------------ 5------------ 8----|--------------------------------|
E| 5-- 7-- 8----------------------| 3------ 4-- 5---------- 3------|
http://classicalguitartablature.blogspot.com/
E|--------------------------------|------------------------ 0------|
B|-------- 1------ 1--------------| 3-------- 1--------------------|
G| 2------ 1------ 0---- 5--------| 2---- 2-- 0-------- 0----------|
D|---- 2 0---- 0------ 0-- 3------|-- 3------------ 2--------------|
A|------------------------ 5-- 4--| 3-------- 3--------------------|
E| 2------ 1------ 0--------------|--------------------------------|
http://classicalguitartablature.blogspot.com/
E|--------------------------------|--------------------------------|
B| 3---------- 1-------- 1------ 3|---------- 1---------- 1------ 3|
G| 5------ 5-- 0---- 0-- 0------ 2|------ 2---- 0---- 0-- 0------ 5|
D|---- 3-------- 2----------------|---- 0------ 2-- 2-------- 2-- 3|
A| 5-------- 3--------------------|--------------------------------|
E|------------ 0---------------- 1|------------ 3---------------- 5|
http://classicalguitartablature.blogspot.com/
E|---------- 0--------------------|------------------------ 0------|
B|---- 5---- 1-------------- 1-- 3|---------- 1--------------------|
G|---- 7---- 0---------- 0------ 5|------ 5---- 0------ 0----------|
D|---- 5------------ 2------------|-- 3------------ 2---------- 2--|
A|-------------- 3-------------- 5|------------ 3------------------|
E|---- 7--------------------------|--------------------------------|
http://classicalguitartablature.blogspot.com/
E|--------------------------------|--------------------------------|
B| 3---------- 1-------- 1--------| 3---------- 1---------- 1------|
G| 5------ 5-- 0---- 0------------| 2------ 2---------- 0-- 0------|
D|---- 3---------- 2---------- 2--|---- 0------ 2-- 2---------- 2--|
A|--------------------------------|--------------------------------|
E| 5---------- 3------------------| 1---------- 0------------------|
http://classicalguitartablature.blogspot.com/
E|------------ 0------------------|--------------------------------|
B| 3-- 5------ 1-------------- 3--|------------ 3------------------|
G| 5-- 4------ 0------------------| 5---------- 0------ 0----------|
D| 3-- 3-------------- 2----------|---- 3---------- 0---------- 0--|
A| 5-- 4---------- 3------ 2------|--------------------------------|
E|--------------------------------| 5------ 4-- 3---------- 1------|
http://classicalguitartablature.blogspot.com/
E|--------------------------------|--------------------------------|
B| 0---------- 1------------------|---------------- 1---- 0 0------|
G| 0------ 4-- 2------ 2----------|-------- 5------ 0------ 0------|
D|---- 0-- 5------ 3---------- 0--|---- 3------ 3------ 0------ 0--|
A|-------- 5-- 3---------- 2------|--------------------------------|
E| 0------------------------------| 5------ 4------ 3------ 1------|
http://classicalguitartablature.blogspot.com/
E|--------------------------------|--------------------------------|
B|---------------------- 3--------|-------- 1------ 1------ 0------|
G| 0-------------- 4------ 5---- 5|-------- 2------ 1------ 0------|
D|---- 0------ 2------ 2------ 3--|---- 3-- 2-- 2------ 0------ 0 5|
A|--------------------------------|------------------------------ 5|
E| 0------ 1------ 3------ 4---- 5|-------- 2------ 1------ 0------|
http://classicalguitartablature.blogspot.com/
E|---------------------- 3---- 3--|--------------------------------|
B|------------------ 8-- 6---- 3--|-- 3-- 8---- 8-------- 8------ 8|
G|---- 2------ 2---- 7---- 5-- 4--|-- 4-- 7---- 7------ 7-- 7---- 9|
D|---- 2------ 3---- 5------------|---- 5 5---- 5------ 5-- 9-- 9 7|
A|---- 3 2------------------------|--------------------------------|
E|---------------- 6------ 4---- 3|------ 5---- 7-- 7------10---- 8|
http://classicalguitartablature.blogspot.com/
E|--------------------------------|------ 0------------------------|
B|----10------ 5---------------- 1|------ 1-------- 5------ 3---- 1|
G|---- 7------ 5-------------- 5 2|---------------- 5------ 4------|
D|---- 9 9---- 5------ 5------ 5--|---- 3---- 2-------- 3------ 3--|
A|--------------------------------|---------------- 5------ 4------|
E|---- 7---------- 5---- 3------ 1|-------- 0----------------------|
http://classicalguitartablature.blogspot.com/
E| 0---------------- 3---- 3-- 3--|------ 3---- 3------------------|
B|------------------ 1---- 6-- 3--|-- 3-- 0---- 3------ 3 8------ 8|
G|------------ 0---- 0---- 5-- 4--|-- 4-- 0---- 4------ 4 7------ 5|
D|---- 2-------- 2----------------|-- 5---------------- 5------ 5 5|
A| 3------ 2------ 0--------------|---------------- 5--------------|
E|------------------------ 4------| 3---- 1-------------- 7------ 5|
http://classicalguitartablature.blogspot.com/
E|-- 5----------------------------|-------- 0----------------------|
B|-- 8------ 5--------------------|-------- 1------ 5------ 3---- 5|
G|-- 5------ 4-------- 5------ 2--|---- 2-- 2-- 2-- 5------ 4---- 5|
D|---------- 3-------- 5------ 2--|---- 2------ 2------ 5-- 3-- 3--|
A|--------------------------------|--------------------------------|
E|------ 4-------- 3------ 2------| 1------ 2------ 3------ 4---- 5|
http://classicalguitartablature.blogspot.com/
E|-------------------------- 3----|---------- 3---------- 3--------|
B|------------------ 8-- 8-- 3----|-- 3-- 8-- 3------ 3-- 6------ 8|
G|---------- 7------ 9--10-- 4----|-- 4-- 7-- 4------ 4-- 5------ 5|
D|---- 5---- 5------ 7-- 8--------|-- 5-- 9---------- 5------ 3-- 5|
A|------------------------------ 5|------ 8------------------------|
E|------ 7------ 8------ 9--------|-------------- 3------ 4--------|
http://classicalguitartablature.blogspot.com/
E|---- 5--------------------------|--------------------------------|
B|---- 8------ 5------------------|------ 5------ 5-------------- 5|
G|------------ 7-- 9---- 9------ 5|------ 5------ 5------ 7------ 5|
D|------------ 5------ 7------ 8--|---- 3 5---- 5---- 7-------- 7--|
A|------------------------------ 5|-------- 7---- 8-------- 9------|
E| 5------ 7------ 8------ 9------|------------------------------ 3|
http://classicalguitartablature.blogspot.com/
E|--------------------------------|---------------------------- 8--|
B|-------------------- 8-- 8-- 8--|-------- 8-- 8-------- 8---- 5--|
G|------------ 5------ 5-- 7-- 7--|---- 7-- 8-- 7------ 7 7---- 5--|
D|---- 5------ 3------ 5-- 6-- 7--|---- 7-- 7-- 6------ 6 6--------|
A|--------------------------------|-------- 8---- 7----------------|
E|-------- 4---- 5-------- 6------| 7---------------------- 6-- 5--|
http://classicalguitartablature.blogspot.com/
E|---- 7------------------ 5------|--------------------------------|
B|---- 8------10--13------ 5------|------ 1-------- 1--------------|
G|---- 7------ 9--12------ 5------|---- 2-- 2------ 2---- 4------ 5|
D|------------ 7--10--------------|---- 2------ 2---- 3-- 3-- 3-- 5|
A|-------------------- 7----------|--------------------------------|
E|---- 7-- 8------10--------------| 1------ 2------ 3------ 4------|
http://classicalguitartablature.blogspot.com/
E|--------------------------------|--------------------------------|
B|------ 5---- 3------ 1----------|------ 1------------------------|
G|------ 4---- 3------ 3---- 3----|-- 2-- 0------ 5-------- 4------|
D|------ 3---- 3------ 2---- 2----|-- 2-- 2-- 2-------- 3------ 3--|
A|--------------------------------|-------------- 5-------- 4------|
E| 5---- 4------ 3------ 2------ 1|------ 0------------------------|
http://classicalguitartablature.blogspot.com/
E|-------- 0----------------------|--------------------------------|
B| 1---------- 3---- 1------------|------ 1---------------- 0------|
G| 0---------- 0------ 0----------|---- 2 0------ 5-------- 0------|
D|---- 2------------ 2-------- 2--|---- 3---- 0-------- 3-- 0-- 0--|
A| 3------ 2------ 0--------------|------------------------ 2------|
E|------------------------ 3------| 1------ 3---- 5----------------|
http://classicalguitartablature.blogspot.com/
E|--------------------------------|--------------------------------|
B| 1---------- 1 3---------- 3-- 4|---------- 4-- 6---------- 6-- 5|
G| 2------ 2------ 4---- 4--------| 5---- 5------ 7------ 7--------|
D|---- 3-------- 5---- 5-------- 6|-- 6---------- 8-- 8------------|
A| 3-------------- 5--------------| 6------------ 8----------------|
E|--------------------------------|--------------------------------|
http://classicalguitartablature.blogspot.com/
E|--------------------------------|--------------------------------|
B|--------------------------------|--------------------------------|
G| 5------------------------------|--------------------------------|
D| 5------------------------------|--------------------------------|
A| 7------------------------------|--------------------------------|
E|--------------------------------|--------------------------------|
http://classicalguitartablature.blogspot.com/
0 com

Sailing-Rod Stewart

Rod Stewart 's hit fingerstyle chord melody guitar arrangement played in the key of D. Sailing played in the key of D.
http://classicalguitartablature.blogspot.com/
E|--------------------------------|--------------------------------|
B|-- 0------ 0---- 0-------- 0----|---- 3------ 3------ 3------ 3--|
G|---- 5------------ 5------ 5----|-- 2------ 2------ 2------ 2----|
D| 5-- 5 5---- 5 5------ 5---- 5--|------ 4------ 4------ 4------ 4|
A| 3---- 3-------- 3------ 3------| 5------ 5------ 5------ 5------|
E|--------------------------------|--------------------------------|
http://classicalguitartablature.blogspot.com/
E|--------------------------------|--------------------------------|
B|-- 0------ 0---- 0-------- 0----|---- 3------ 3------ 2----------|
G|---- 5------------ 5------ 5----|-- 2------ 2-------- 2-- 2-- 4--|
D| 5-- 5 5---- 5 5------ 5---- 5--|------ 4------ 4-- 2------ 2-- 2|
A| 3---- 3-------- 3------ 3---- 5|-------- 5------ 0------ 4------|
E|--------------------------------|--------------------------------|
http://classicalguitartablature.blogspot.com/
http://classicalguitartablature.blogspot.com/
E|---------------------------- 5--| 7------ 7------------ 7------ 5|
B| 3-- 3 3-------------- 3--------| 7---- 710----10----1210----10--|
G| 2-- 2---- 2------ 2-- 7--------|---- 7------ 9----11-------- 7--|
D|-- 4------ 4 4-- 4-------- 5----|-- 7------ 7---- 9------ 7------|
A| 5------------------------------|---------------------- 9--------|
E|------ 2------ 5------ 6--------| 7------ 9------10--------------|
http://classicalguitartablature.blogspot.com/
E|------------------------------ 2|--------------------------------|
B|---- 3 8---- 8------ 3 8-- 7----| 2------------------ 2 8-- 7-- 7|
G|-- 4------ 7------ 4-- 7-- 7----|---- 2---- 6------ 2-- 5-- 8-- 7|
D|-- 4---- 5------ 5------ 5-- 5--|-- 2-- 2-- 4 4-- 2-------- 7-- 7|
A|-------------- 5------ 7--------|-------------- 4------ 6-- 8-- 7|
E| 3------ 7-------------------- 2|-------- 5----------------------|
http://classicalguitartablature.blogspot.com/
E|---------------------- 2-- 0----|--------------------------------|
B|------ 7 5-- 5------ 5 3-- 2-- 5|---- 5 3---- 3 3---------- 0-- 7|
G|---- 7 4-- 4------ 4---- 3-- 0--|-- 7-- 4-- 4-------- 4 2-- 2----|
D|-- 5------ 5---- 5--------------| 7------ 4-------- 4-- 4-- 2-- 2|
A|-------- 5---- 4------ 3-- 1----|--------------------------------|
E|------------------------------ 7|------ 5-------- 4------ 3-- 2--|
http://classicalguitartablature.blogspot.com/
E|--------------------------------|------------------------ 5 7-- 7|
B|-------- 5------------ 5-- 3-- 3|---- 3------ 3------ 2-- 3 7-- 7|
G| 7 5---- 4-- 2-- 7---- 7-- 4-- 4|-- 4------ 3 3---- 2-- 4-- 6----|
D| 5-- 7 7-- 5 5 5-- 8-- 5-- 5-- 5| 4------ 2------ 2--------------|
A| 7-- 6-- 5-- 4------------------|-------------------------- 6----|
E|---------------- 8-- 7 6-- 5-- 4|-------- 3---- 2------ 0--------|
http://classicalguitartablature.blogspot.com/
E|------ 7 5-- 5------------ 5----| 7-- 7-- 7---- 7------ 7--------|
B|---- 7-- 2-- 2------ 7 7--------| 7-- 7-- 7 7-------- 510--10--10|
G|-- 6------ 2------ 9-- 7--------| 7 7------ 7------ 4---- 9 8-- 7|
D|------------------ 7---- 5------|---------------- 5----------10--|
A| 5------ 4----------------------|---------------------- 9-- 8-- 7|
E|-------------- 8------ 7--------| 5------ 4---- 3----------------|
http://classicalguitartablature.blogspot.com/
E|---------------------- 3-- 2-- 2|------------------------------ 2|
B|----10 8---- 8------ 5 5-- 5-- 3|---- 3---- 5-------- 5 8-- 7-- 3|
G|-- 7-- 5-- 5------ 4---- 2-- 2 3|-- 3-- 7---- 7 7-- 7-- 5-- 5----|
D| 9------ 7------ 5--------------| 2------ 5------ 5------ 5-- 5--|
A|------ 6-------- 5---- 4------ 3|--------------------------------|
E|--------------------------------|------ 7------ 6------ 5------ 4|
http://classicalguitartablature.blogspot.com/
E|---- 2--------------------------|------------------------------ 2|
B|-- 3---- 5-- 5-------- 3 7-- 5--| 5---- 5---- 3------ 3-------- 3|
G| 4------ 4 4-------- 2-- 6-- 6--| 4-- 4 2-- 2------ 2-- 2-- 4----|
D|---------- 2------ 2------ 8 5 5|-- 4---- 2------ 5------ 3 4 4--|
A|------------------------ 7-- 6--| 5---- 3------ 2------ 1--------|
E|-------- 3------ 2--------------|-------------------------- 5-- 4|
http://classicalguitartablature.blogspot.com/
E|------ 0------------------------|--------------------------------|
B|------ 0-------------- 5---- 3--| 3------------------------------|
G| 4-- 3 2 2-- 2 7------ 5 4-- 4--| 5 4 5-- 4 5---- 4 5---- 4 5----|
D|---- 2-- 2-- 0---- 5------ 5-- 3| 5---- 5---- 5------ 5------ 5 5|
A|---------------- 7-- 6-- 5-- 4--| 3------ 3---- 3------ 3------ 5|
E|-- 3-- 2-- 1--------------------|--------------------------------|
http://classicalguitartablature.blogspot.com/
E|--------------------------------|--------------------------------|
B| 3------------------------------|--------------------------------|
G| 5------------------------------|--------------------------------|
D|--------------------------------|--------------------------------|
A|--------------------------------|--------------------------------|
E|--------------------------------|--------------------------------|
http://classicalguitartablature.blogspot.com/
0 com

Little Wing

Jimi Hendrix's classic fingerstyle solo guitar arrangement played in the key of Em. Litle Wing played in the key of Em.
http://classicalguitartablature.blogspot.com/
E|--------------------------1211--|--------------------------------|
B|--------------------------1211 5|--------------------------------|
G|--------------------------------|------------------------ 5 5----|
D|--------------------------------|-------------------- 5 5 5 5 7--|
A|--------------------------------|---------------------- 5 5------|
E|--------------------------------| 0-------------- 5 7 5-------- 3|
http://classicalguitartablature.blogspot.com/
E|-------- 5 3--------------------|--------------------------------|
B|-------- 3 3 3 3 3 3---- 3 3 3--|--------------------------------|
G|-------- 4-- 4 4 4 5-- 4 5 4 0--|------------ 5-- 5 5------------|
D|---- 5--------------------------|---------------- 5 5 7-- 5 5----|
A|--------------------------------|-------- 5 7-- 7-------- 7 5----|
E|--------------------------------| 5------------------------ 7-- 6|
http://classicalguitartablature.blogspot.com/
http://classicalguitartablature.blogspot.com/
E|--------------------------------|------ 9-- 7-- 9-- 7------------|
B|-------- 8 8-------- 8 8 8 8 8--|---- 7 7-- 7-- 710 7------------|
G|-------- 7-- 7------ 7 7 7 7 7--|---- 7-- 7 7-- 7 7 7 7---- 7----|
D|-------- 9-- 9------ 7 9 7 7 7--|---- 7---------- 7-- 9---- 8----|
A|---- 7-------- 7 710------10 7--|------------------------ 8------|
E|--------------------------------| 7-------------------- 6------ 5|
http://classicalguitartablature.blogspot.com/
E|--------------------------------|-------- 5-- 5-- 3--------------|
B|--------------------------------|---- 3-- 5-- 5-- 1---- 1--------|
G|---- 5-- 5 5 5 5 5-- 5 5 5------|---- 4---------- 2-- 2------ 2--|
D|---- 7-- 7 7 5 5 5-- 5 7 5------|---- 5------------ 3------ 3----|
A|---- 7-------- 8 7--------------|------------------------------ 3|
E|---------------------------- 7 6| 3-------------- 1--------------|
http://classicalguitartablature.blogspot.com/
E|--------------------------------|------------------------------ 0|
B|------ 1-- 3 1-- 3---- 3------ 3|-- 3-- 3-- 3-- 3------ 0-- 3-- 0|
G|---- 0 0-- 0---- 2-- 2 2--------| 2 2-- 2-- 2-- 2------ 2-- 2-- 0|
D|-- 2------ 2------ 4------ 4----|------ 5-- 2-- 4------ 2---- 1--|
A|---------------- 5--------------|-------------- 5----------------|
E|--------------------------------|---------------------- 2---- 1 0|
http://classicalguitartablature.blogspot.com/
E|-- 0----------------------------|--------------------------------|
B|------ 0-- 1------------ 3-- 3--| 3 0---------- 3------ 0--------|
G|---------- 2---- 4 4---- 5-- 5--| 0 0-- 0---- 2------ 0----------|
D|------------ 1-- 2-- 2---- 5-- 4| 0-------- 0------ 0---- 5-- 5--|
A|--------------------------------|------------------------ 5-- 4--|
E|-------- 2------ 3---- 3 5-- 4--| 3------ 2------ 0--------------|
http://classicalguitartablature.blogspot.com/
E|--------------------------------|--------------------------------|
B|-- 3---------- 0------ 1--------|--------------------------------|
G| 4-- 4 2---- 2------ 0-- 0 2 0--|---------- 4-- 4---- 4------ 2--|
D| 2-- 2---- 0------ 2---- 0 0 0--| 2 2---- 5 5------ 5------ 2----|
A| 3------ 2------ 0--------------| 2---- 2 5---- 5-------- 3------|
E|------------------------ 3------| 0------------------------------|
http://classicalguitartablature.blogspot.com/
E|--------------------------------|--------------------------------|
B|---- 5-- 3----------------------|-------------- 1 1---- 1-- 3----|
G| 7 7---- 4-- 4 2---- 0-- 4-- 0--| 0-- 0---- 0------ 0---- 5 2----|
D| 7---- 4-- 4------ 0------ 2----|-- 2------ 2------ 2---- 5 4----|
A|--------------------------------| 0---------------------- 5 3----|
E| 7---- 5------ 2------ 4--------|-------- 3------ 0--------------|
http://classicalguitartablature.blogspot.com/
E|--------------------------------|--------------------------------|
B| 0-------------- 6 6------------| 1---- 1 1 1 3 0----------------|
G|-- 2 0---------- 5 5-- 5 5 5-- 4| 0 0-- 0 0 0 0 2-- 2-- 2--------|
D|---------------- 7 7-- 5 3 3-- 3| 2---- 2-- 2 2-------- 0-- 4-- 4|
A| 2-- 0---------- 8-- 7-- 5-- 4--| 3-- 2 0-------------- 5-- 3----|
E|-------- 3-- 0------------------|---------- 3-- 2---- 0----------|
http://classicalguitartablature.blogspot.com/
E|-------------------------- 3--12|----------------12--10-- 7--10--|
B|------------------ 1-- 3-- 3--12|----------12----12--12--10-- 7--|
G| 8 8-- 4---- 4---- 2-- 2-- 2----|----12----11------10--10 9------|
D| 7 7-- 4---- 4---- 2-- 1--------|--12--12------10---------- 7-- 7|
A|--------------------------------|--------------------------------|
E| 7 7-- 5-------- 2---- 1---- 1 0|------11------10-------- 8------|
http://classicalguitartablature.blogspot.com/
E| 7----------12-------- 7--10----| 7-- 5-- 7------ 7-- 7-- 7 5----|
B| 8---- 8------15 8---- 8 7 7----| 5-- 5--1010 810101010-- 5 5-- 8|
G|---- 7----12---- 7-- 7---- 7----| 5------ 9 9 9-- 7 7---- 5 5----|
D|-- 9------14------ 9------ 7-- 7|-- 5-- 5-- 7 7 7------ 9--------|
A|--------12------10------ 9------| 7------------------------------|
E| 7------------------------------|-------- 8------ 7------ 5------|
http://classicalguitartablature.blogspot.com/
E|------------ 7------------------|--------10 910 9------ 5-- 5-- 8|
B| 5---- 5 81010--10 8--10--10----| 810----12121212 8---- 7-- 8-- 5|
G| 4 4---- 7 7-- 7-- 9-- 9--------| 7---- 711111111---- 7-- 6 7-- 5|
D|-- 2------ 9-- 9------ 9------ 7| 7-- 7-------- 7-- 7---------- 5|
A|-------- 7----------------------|--------1212-- 9------ 6--------|
E| 3------------10-------- 8------| 7-------------------------- 6 5|
http://classicalguitartablature.blogspot.com/
E|-- 7 8 7-- 7--12------1210------|--15--15--15--13----------------|
B|-- 5-- 5-- 8 810--10----12--12--|12--1212--12------13--13------ 5|
G|-- 5 5 5---- 7---- 9----11--11--|12--12121212------12------12-- 5|
D|------------ 7------------10--10|12------12------------------10 5|
A|----------------------------11--|10------10--10------------------|
E|------ 7------ 8--------10------|--------------13------11------11|
http://classicalguitartablature.blogspot.com/
E|--------------------------------|------------------------ 0------|
B|-------- 5------ 3---- 3------ 3|-------- 0-- 3-- 5---- 0--------|
G|-- 7 5-- 5 7 5-- 5---- 5-- 5-- 5| 5------ 0-- 5-- 4---- 2--------|
D|-- 5 5-- 5 5 5-- 5---- 5-- 5-- 5|-------- 0-- 5-- 2--------------|
A|-------- 7------ 5--------------| 5------ 3----------------------|
E|--------------------------------|------------ 5 3---- 1----------|
http://classicalguitartablature.blogspot.com/
0 com

Arthur's Theme

Christopher Cross' hit fingerstyle chord melody guitar arrangement played in the key of E. Arthur's Theme played in the key of E.
http://classicalguitartablature.blogspot.com/
E| 5 5 5------------------------ 4| 4-- 4-------------- 4----------|
B| 2 2 2-- 2------ 4------------ 5|-- 5 5 3 5------10-- 5-- 7-- 5--|
G| 2 2 2---- 2-- 6------ 4-- 4-- 4|-- 4 4 2 7------ 9---- 4 6-- 6--|
D|------------ 2 4---- 4 7-- 4----|-------- 6-------- 7------ 7-- 7|
A|-------------- 6-- 4------------|-------------- 5---- 5-- 6-- 7--|
E| 2---- 0-------------- 7-- 5-- 4|-------- 2-- 0-- 9--------------|
http://classicalguitartablature.blogspot.com/
E|------ 2-------------------- 2--|------ 4------------------------|
B| 7 7 7 4-------------------- 1--| 7-- 6 6------ 6 6---- 6 3-- 5--|
G| 8 8 6 2-- 2-- 1-------- 5-- 1--| 8 8 5 5---- 5-- 6-- 6-- 4-- 4--|
D| 7 7 7---- 4-- 1-- 1-- 1-- 4-- 6|---- 4---- 6------ 6------ 4 3 3|
A| 9 9 6-- 4------ 3-- 1-------- 8|---- 6-- 4----------------------|
E|------------------------ 4-- 2--|---------------- 7------ 4-- 3--|
http://classicalguitartablature.blogspot.com/
http://classicalguitartablature.blogspot.com/
E|------ 5-- 5 5 5-- 7-- 9 7-- 5--| 4 4 4---------- 5--------------|
B|101010 5---- 7 7--10-- 9 4-- 4--| 5 5 5 9-- 5---- 5-- 9-- 7-- 5 7|
G| 9 9 7 6-- 6 6 6 9 9-- 8 4-- 2--| 4 4 4 7-- 7-- 7 6-- 8-- 9-- 5 6|
D| 7 7 9---------- 7--------------|------ 7-- 6-- 6-- 7 9 9-- 7 4 7|
A| 9-- 8-- 7-- 6------------------|---- 5---------------------- 5 6|
E|---------------- 9 8-- 7 5-- 2--| 0------ 7-- 6-- 5-- 7-- 9------|
http://classicalguitartablature.blogspot.com/
E|-------- 2----------------------|------ 1 4-------------------- 9|
B|-- 7 7-- 4------------------ 7--| 7 4-- 4 4---- 4 7---- 7---- 9 9|
G|-- 6 6 2---- 2-- 1------ 5-- 6--| 6 1-- 1---- 3------ 4 6-- 6-- 8|
D|-- 7 7---- 4------ 1-- 1-- 4 4--| 4 1------ 3------ 4------ 9----|
A|------ 4-------- 3-- 1----------|-- 2-- 3 4------ 6------ 8---- 9|
E|------------------------ 4-- 5--| 6------------------------------|
http://classicalguitartablature.blogspot.com/
E| 9 9-- 9-- 9-- 9 9-- 8-- 8------|--------------------------------|
B| 9-- 9 7-- 9-- 9 9--11-- 7--11--| 9------ 9------ 6--------------|
G| 8 8-- 6-- 8-- 8 8--10---- 8 8--| 8------ 8-------- 6---- 6 5 5--|
D|------------------ 6--11----1010|--10--10-- 6-- 6---- 6-- 5 5 4--|
A|---- 8 6---------------- 6 9----| 8------------------------------|
E|---------- 9---- 8-- 9----------|----11 8---- 7 6-------- 6 5 4 2|
http://classicalguitartablature.blogspot.com/
E| 2 2 2 2-- 2 2-- 2 2 2-- 6---- 4|------------------------------ 9|
B| 4 4-- 2-- 2 2-- 2 2 2 9 9 6-- 4|------ 4 6-- 6-- 6---- 6 6-- 6 9|
G| 3 3 3 1-- 1 1 3-- 3 3 6 6 5-- 3|---- 3-- 8-- 8-- 6-- 5-- 4-- 4 8|
D|---------------------- 8---- 4--|-- 3------ 8 7---- 6-- 4-- 4 3--|
A|---------------------- 6---- 5 4|------------------------------ 9|
E|-------- 1---- 0----------------|-------- 8---- 7 6---- 5 4-- 3--|
http://classicalguitartablature.blogspot.com/
E| 9 9-- 9-- 9-- 9 9-- 8-- 8------|---------------- 6--------------|
B| 9-- 9 7-- 9-- 9 9--11-- 7--11--| 9---------- 6-- 9----------11--|
G| 8 8-- 6-- 8-- 8 8--10---- 8 8--| 8------ 8-- 8 8------------10--|
D|------------------ 6--11----1010|--10--10-- 6-- 6-- 6------ 8----|
A|---- 8 6---------------- 6 9----| 8------------------------------|
E|---------- 9---- 8-- 9----------|----11-- 8-- 7 6------ 810------|
http://classicalguitartablature.blogspot.com/
E|------ 2-- 4-- 6----------------|--------------------------------|
B| 7 7 7 2-- 4-- 9---- 9 7-- 6 2--| 2------ 2------ 2------ 2------|
G| 6 6 4 3-- 3-- 8-- 8-- 6-- 6 3--| 3---- 3 2------ 1---- 1 1------|
D| 4 4 6---------- 6---- 4-- 4 4--|-- 3-------- 1---- 1-- 0---- 0--|
A| 6-- 5-- 4-- 3------------------|------------------------------ 6|
E|---------------- 7---- 6-- 5-- 4| 3------ 2------ 1------ 0------|
http://classicalguitartablature.blogspot.com/
E|-------- 2-- 4-- 6--------------|---------- 4---- 6------ 2 1----|
B| 7 7-- 7 2-- 4-- 9---- 9------ 6| 7 7 7 7---- 7-- 6---- 6 4 2-- 2|
G| 6 6-- 4 3-- 3-- 8-- 8------ 6--| 6 6 6 6------ 6---- 6-- 2 2-- 3|
D| 4 4-- 6---------- 6------ 4-- 4|-- 4 4---- 4------ 5---------- 2|
A|------ 5---- 3------------------|-------------------------- 2-- 3|
E|-------------- 7-------- 6---- 5|-------- 4---- 3------ 2--------|
http://classicalguitartablature.blogspot.com/
E|--------------------------------|--------------------------------|
B| 2------------------------------|--------------------------------|
G| 5------------------------------|--------------------------------|
D| 3------------------------------|--------------------------------|
A| 4------------------------------|--------------------------------|
E|--------------------------------|--------------------------------|
http://classicalguitartablature.blogspot.com/
0 com

While My Guitar Gently Weeps

Classic Beatles' hit fingerstyle chord melody guitar arrangement played in the key of Dm. 2 arranngements were done: An easy version follows by an intermediate version. 2 Arrangements of While My Guitar Gently Weeps played in the key of Dm.
http://classicalguitartablature.blogspot.com/
E|--------------------------------|-------------------------- 1----|
B|------ 6-------------- 3---- 3 3|-------- 3---- 3-------- 3------|
G|---- 5-- 5-- 5------ 2---- 2----|------ 0---- 0-------- 2------ 2|
D|-- 3------ 3------ 3---- 3------|---- 0---- 0-------- 3------ 3--|
A| 5------------ 3----------------| 2-------------- 1--------------|
E|--------------------------------|--------------------------------|
http://classicalguitartablature.blogspot.com/
E|-------------------------- 0----|---------- 1--------------------|
B|-------- 6---- 6-------- 1------|-------- 1------ 2---- 2------ 3|
G|------ 5---- 5-------- 0--------|------ 2------ 2 0-- 0---- 2-- 5|
D|---- 3---- 3-------- 2---- 2-- 2|---- 3------ 3---- 2---- 2------|
A| 5-------------- 3--------------|---------------- 0--------------|
E|--------------------------------| 1------------------------------|
http://classicalguitartablature.blogspot.com/
http://classicalguitartablature.blogspot.com/
E|---------------------- 0 1------|------ 0 1---- 3-- 1---- 1-- 1--|
B|---- 3-- 5------ 3-- 3-------- 3|---- 3-------- 3-- 3 3---- 3----|
G|---- 5-- 5-- 5---- 2-------- 2--|-- 0-------- 0-- 2-- 2-- 2------|
D|-- 3-------- 3---- 0------ 0----| 0-------- 0--------------------|
A| 5-------------- 3--------------| 2------------ 1----------------|
E|--------------------------------|--------------------------------|
http://classicalguitartablature.blogspot.com/
E|---- 5---------- 0--------------|--------------------------------|
B|---- 6-- 6 5---- 1-- 1 3-- 1-- 3|------ 3-- 3---- 2---- 2------ 3|
G|-------- 5 5 7------ 0----------|---- 0---- 0-------- 0---- 2-- 5|
D|-- 7-- 7------ 7-- 2---- 2-- 2--|-- 0---- 0---- 0-- 2---- 2------|
A| 5-------------- 3------------ 2|---------------- 0---- 4------ 5|
E|--------------------------------|--------------------------------|
http://classicalguitartablature.blogspot.com/
E|---------------------- 0 1------|------ 0 1---- 3-- 1---- 1-- 1--|
B|---- 3-- 5------ 3-- 3-------- 3|---- 3-------- 3-- 3 3---- 3----|
G|---- 5-- 5-- 5---- 2-------- 2--|-- 0-------- 0 2---- 2-- 2------|
D|-- 3-------- 3---- 0------ 0----| 0-------- 0--------------------|
A|-------------- 3----------------| 2------------ 1----------------|
E|--------------------------------|--------------------------------|
http://classicalguitartablature.blogspot.com/
E|---- 5---------- 0------------ 1|------ 1-------- 5--------------|
B|---- 6-- 6 5---- 1-- 1 3-- 1-- 1|------ 1-------- 5---- 5---- 5--|
G|-------- 5 5 7------ 0----------|---- 2-------------- 6---- 6----|
D|-- 7 7-------- 7-- 2---- 2-- 2--|-- 3------ 3------ 5---- 5---- 5|
A| 5-------------- 3--------------|--------------------------------|
E|--------------------------------| 1-------- 3-- 4 5--------------|
http://classicalguitartablature.blogspot.com/
E|-------- 2-- 2-- 9--------------|---------------- 5 2------------|
B|------ 5-- 5----10----12----10--|-------- 7-- 7-- 2 2-- 2--------|
G|---- 2-------------- 9---- 9----|---- 7---- 9---- 2-- 2------ 2--|
D|-- 4--------------11----11----11|-- 7-- 7------ 7---------- 2 2--|
A| 5-------------- 9--------------|--------------------------------|
E|--------------------------------| 7-------------- 2--------------|
http://classicalguitartablature.blogspot.com/
E|------ 0-- 0-- 5----------------| 2---- 0---- 0------------------|
B|------ 0 3 0-- 8------ 8 7------| 0-------------- 0---- 0 3-- 5--|
G|-- 0---- 0---------- 7------ 7--|---- 0---- 0-------- 0-- 0-- 2--|
D| 0---- 0------ 0-- 5---------- 5| 0 0---- 0---- 0 0---------- 2--|
A|-------------- 7----------------| 0-------------- 0------ 2-- 4--|
E| 0------------------------------|--------------------------------|
http://classicalguitartablature.blogspot.com/
E|-------- 2-- 2-- 9--------------|---------------- 5 2------------|
B|------ 5-- 5----10----12----10--|-------- 7-- 7-- 2 2-- 2--------|
G|---- 2-------------- 9---- 9----|---- 7---- 9---- 2-- 2------ 2--|
D|-- 4--------------11----11----11|-- 7-- 7------ 7---------- 2 2--|
A| 5-------------- 9--------------|--------------------------------|
E|--------------------------------| 7-------------- 2--------------|
http://classicalguitartablature.blogspot.com/
E|------ 0-- 0-- 5-------------- 2|------ 0------------------------|
B|------ 0 3 0-- 8------ 8 7------| 0-- 0-------- 0 3---- 3 5---- 3|
G|-- 0---- 0---------- 7------ 7--|-------- 0-- 0------ 0------ 2--|
D| 0---- 0------ 0-- 5---------- 5|-- 0------ 0------ 0------ 2----|
A|-------------- 7-------------- 0|---------------- 2------ 4------|
E| 0------------------------------|--------------------------------|
http://classicalguitartablature.blogspot.com/
E|---------------------- 0 1------|--------------------------------|
B|------ 3 5 6---- 3---- 3 3-- 3 3|------ 5-- 6---- 8 6------------|
G|---- 5-- 3---- 3 2-- 2 2-- 2-- 0|------ 4-- 5---- 7 5---- 2------|
D|-- 3-------- 5---- 3------------| 0---- 3-- 3-- 3 8 7-- 7-- 3----|
A| 5------ 4------ 3---- 0 1---- 2|---- 0--------------------------|
E|--------------------------------|-------- 3-- 5-- 6-- 5-- 1-- 0--|
http://classicalguitartablature.blogspot.com/
E|-- 5---------- 0----------------|--------------------------------|
B| 6------ 6 5---- 1------ 3---- 3|------------------------ 5------|
G| 5-- 5-- 3 3 3-------- 0 5 5----| 0-- 0 4-- 5---- 6-- 7------ 2--|
D| 7------ 5 5 5---- 2---- 5 5-- 5| 0------ 3---- 4-- 5-- 5-- 2-- 2|
A| 5------ 4------ 3--------------| 2 0-------------------- 3-- 4--|
E|-------------------- 0-- 3-- 6--|------ 3-- 4-- 5---- 7----------|
http://classicalguitartablature.blogspot.com/
E|---------------------- 0 1------|--------------------------------|
B| 3---- 3 5 6---- 3---- 3 3-- 3 3|------ 5-- 6---- 8 6------------|
G| 5-- 5-- 3---- 3 2-- 2 2-- 2-- 0|------ 4-- 5---- 7 5---- 2------|
D|-- 3-------- 5---- 3------------| 0---- 3-- 3-- 3 8 7-- 7-- 3----|
A| 5------ 4------ 3---- 0 1---- 2|---- 0--------------------------|
E|--------------------------------|-------- 3-- 5-- 6-- 5-- 1-- 0--|
http://classicalguitartablature.blogspot.com/
E|-- 5---------- 0----------------|-------------- 5----------------|
B| 6------ 6 5---- 1------ 3------| 6------------ 5----------------|
G| 5-- 5-- 3 3 3-------- 0 5 5----| 5-- 2-- 3 5-- 6-- 7---- 9---- 7|
D| 7------ 5 5 5---- 2---- 5 5-- 5|-- 7-- 3 3-- 3---- 5 5-- 7---- 7|
A| 5------ 4------ 3--------------|--------------------------------|
E|-------------------- 0-- 3-- 6--| 8-- 1-- 3-- 4 5---- 7-- 8 9--10|
http://classicalguitartablature.blogspot.com/
E|------------ 2-- 9--------------|------------ 2-- 5 2------------|
B|-------- 7 5 5--10------1210----|-------- 7 5 5-- 2 5------------|
G|-------- 7 7 4---- 9---- 9 9----| 7------ 7 7 4-- 2 4-- 4 6-- 2--|
D|-- 7---- 7---- 2--11--1111 7-- 7|-- 7-- 5------ 2------ 2 4-- 2--|
A|---------------- 9--------------|---------------------------- 4--|
E|---- 9-- 5-- 3------12-- 9-- 8--| 7-- 6-- 5-- 3-- 2-- 3-- 5------|
http://classicalguitartablature.blogspot.com/
E|---------------- 5---- 2--------|--------------------------------|
B|-------- 5-- 5-- 7---- 5 5-- 3--| 7------ 5----------------------|
G|-------- 7 7 7---- 7-- 4-- 4 2 2| 7 7-- 5 4---- 4 2---- 0------ 7|
D| 9---- 9 5---- 5------ 4-- 2-- 1| 5 5-- 7 5 5------ 2------ 0----|
A|--------------------------------| 7-- 6-- 5-- 4-- 3-- 2 1---- 0--|
E|10-- 9-- 7-- 6-- 5-- 4-- 3-- 2 1|------------------------------10|
http://classicalguitartablature.blogspot.com/
E|------------ 2-- 9--------------|------------ 2-- 5 2------------|
B|-------- 7 5 5--10------1210----|-------- 7 5 5-- 2 5------------|
G|-------- 7 7 4---- 9---- 9 9----| 7------ 7 7 4-- 2 4-- 4 6-- 2--|
D|-- 7---- 7---- 2--11--1111 7-- 7|-- 7-- 5------ 2------ 2 4-- 2--|
A|---------------- 9--------------|---------------------------- 4--|
E|---- 9-- 5-- 3------12-- 9-- 8--| 7-- 6-- 5-- 3-- 2-- 3-- 5------|
http://classicalguitartablature.blogspot.com/
E|---------------- 5---- 2--------|--------------------------------|
B|-------- 5-- 5-- 7---- 5 5-- 3--| 7------ 5-------------------- 3|
G|-------- 7 7 7---- 7-- 4-- 4 2 2| 7 7-- 5 4---- 4 2---- 0--------|
D| 9---- 9 5---- 5------ 4-- 2-- 1| 5 5-- 7 5 5------ 2------ 0----|
A|--------------------------------| 7-- 6-- 5-- 4-- 3-- 2 1---- 0--|
E|10-- 9-- 7-- 6-- 5-- 4-- 3-- 2 1|--------------------------------|
http://classicalguitartablature.blogspot.com/
E|---------------------- 0 1------|--------------------------------|
B|------ 3 5 6---- 3---- 3 3-- 3 3|------ 5-- 6---- 8 6------------|
G|---- 5-- 3---- 3 2-- 2 2-- 2-- 0|------ 4-- 5---- 7 5---- 2------|
D|-- 3-------- 5---- 3------------| 0---- 3-- 3-- 3 8 7-- 7-- 3----|
A| 5------ 4------ 3---- 0 1---- 2|---- 0--------------------------|
E|--------------------------------|-------- 3-- 5-- 6-- 5-- 1-- 0--|
http://classicalguitartablature.blogspot.com/
E|-- 5---------- 0----------------|--------------------------------|
B| 6------ 6 5---- 1------ 3---- 3|------------------------ 5------|
G| 5-- 5-- 3 3 3-------- 0 5 5----| 0-- 0 4-- 5---- 6-- 7------ 2--|
D| 7------ 5 5 5---- 2---- 5 5-- 5| 0------ 3---- 4-- 5-- 5-- 2-- 2|
A| 5------ 4------ 3--------------| 2 0-------------------- 3-- 4--|
E|-------------------- 0-- 3-- 6--|------ 3-- 4-- 5---- 7----------|
http://classicalguitartablature.blogspot.com/
E|---------------------- 0 1------|--------------------------------|
B| 3------ 5 6---- 3---- 3 3-- 3 3|------ 5-- 6---- 8 6------------|
G| 5-- 5-- 3---- 3 2-- 2 2-- 2-- 0|------ 4-- 5---- 7 5---- 2------|
D|-- 3-- 3---- 5---- 3------------| 0---- 3-- 3-- 3 8 7-- 7-- 3----|
A| 5------ 4------ 3---- 0 1---- 2|---- 0--------------------------|
E|--------------------------------|-------- 3-- 5-- 6-- 5-- 1-- 0--|
http://classicalguitartablature.blogspot.com/
E|-- 5---------- 0----------------|--------------------------------|
B| 6------ 6 5---- 1------ 3---- 3|------------------------ 5------|
G| 5-- 5-- 3 3 3-------- 0 5 5----| 0-- 0 4-- 5---- 6-- 7------ 2--|
D| 7------ 5 5 5---- 2---- 5 5-- 5| 0------ 3---- 4-- 5-- 5-- 2-- 2|
A| 5------ 4------ 3--------------| 2 0-------------------- 3-- 4--|
E|-------------------- 0-- 3-- 6--|------ 3-- 4-- 5---- 7----------|
http://classicalguitartablature.blogspot.com/
E|------------ 1------------------|--------------------------------|
B| 3---- 3 5-- 3---- 3---------- 5|---- 6---- 3------------ 5---- 6|
G| 5-- 5-- 3------ 2 2---------- 6|---- 5---- 3------------ 7---- 6|
D|-- 3------ 5------ 3-- 3-- 3-- 5| 5-- 3-- 3---- 3---- 3---- 5-- 5|
A| 5------ 4-- 3---- 1---- 0------|------------------------ 7---- 6|
E|------------------------------ 5|---- 4---- 3------ 1------------|
http://classicalguitartablature.blogspot.com/
E|--------------------------------|-------- 5----------------------|
B|---- 8------ 6------------------|-------- 6---- 6-- 5-------- 5--|
G|---- 5------ 3-------- 2--------| 7------ 7 7-- 7-- 7-- 7---- 5--|
D|-- 5 7-- 7-- 5-- 5---- 3------ 3|---- 5-------- 6------ 6 6------|
A|---- 5------ 4---- 3------ 2----|-------------- 7----------------|
E|--------------------------------| 6------ 7------------ 6---- 5--|
http://classicalguitartablature.blogspot.com/
E|--------------------------------|--------------------------------|
B|---------- 3------ 1------------|-------- 3------ 3------ 3------|
G|---------- 2------ 0------------|-------- 3---- 3------ 3--------|
D| 5---- 5-- 0-- 0-- 2-- 2--------|-------- 5-- 5---- 5------ 5----|
A|--------------------------------|------ 6------------------------|
E|-- 3------ 2------ 0------------|--------------------------------|
http://classicalguitartablature.blogspot.com/
0 com

Rainbow Connection

Tune made popular by Kermit The Frog fingerstyle solo guitar arrangement played in the key of E. Rainbow Connection played in the key of E.
http://classicalguitartablature.blogspot.com/
E|------ 4------ 4--------|------ 5----------------|
B|------ 5------ 5--------|------ 5----------------|
G|------------ 4----------|------ 6----------------|
D|---- 6-------------- 6--|---- 7------------------|
A|------------------------|------------------------|
E| 0----------------------| 0-------------------- 0|
http://classicalguitartablature.blogspot.com/
E|------ 4------ 4--------|-------- 5--------------|
B|------ 5------ 5--------|-------- 5--------------|
G|------------ 4------ 4--|------ 6----------------|
D|---- 6------------------|---- 7------------------|
A|------------------------|------------------------|
E|------------------------| 0----------------------|
http://classicalguitartablature.blogspot.com/
http://classicalguitartablature.blogspot.com/
E|------------------------|---- 4 4----------------|
B|---------------- 5------| 7-- 7-- 4--------------|
G| 1------ 4------ 5------| 4-- 4-- 4---------- 4 2|
D|---- 2------ 4------ 4--| 6---------- 4------ 3--|
A|-------- 6------ 5------| 4----------------------|
E| 0----------------------|-------- 4------ 3---- 2|
http://classicalguitartablature.blogspot.com/
E|-------------- 0--------|------------------------|
B|------------ 0 2------ 5|---- 7------------------|
G|------------ 2 2---- 2 4|---- 9-------- 9--------|
D|---- 2------ 0-------- 4|---- 7------ 7------ 7 6|
A|---------------------- 6|------------------------|
E|------ 1------ 0--------|-------- 9---- 8------ 7|
http://classicalguitartablature.blogspot.com/
E|------------------------|------------------------|
B|-------------- 4------ 4|------ 5-------------- 2|
G|------ 4------ 4------ 3|------ 6------ 4------ 2|
D|------------ 4 6---- 6 2|---- 2 6---- 6------ 4 2|
A|------------------------|------ 7------ 6------ 4|
E|------ 5------ 4------ 3|------------------------|
http://classicalguitartablature.blogspot.com/
E|------------------------|------------------------|
B|------------------------|------------------------|
G|---- 2-------------- 6 4|------------ 2------ 2--|
D|------------ 2 4------ 4|---- 4------ 2------ 1--|
A|-------- 2--------------|------------------------|
E|-------------- 5--------| 4---- 2-------- 1------|
http://classicalguitartablature.blogspot.com/
E|------------------------|---- 4 4----------------|
B|---------------- 5------| 7-- 7-- 4--------------|
G| 1------ 4------ 5------| 4-- 4-- 4---------- 4 2|
D|---- 2------ 4------ 4--| 6---------- 4------ 3--|
A|-------- 6------ 5------| 4----------------------|
E| 0----------------------|-------- 4------ 3---- 2|
http://classicalguitartablature.blogspot.com/
E|-------------- 0--------|------------------------|
B|------------ 0 2------ 5|---- 7------------------|
G|------------ 2 2---- 2 4|---- 9-------- 9--------|
D|---- 2------ 0-------- 4|---- 7------ 7------ 7 6|
A|---------------------- 6|------------------------|
E|------ 1------ 0--------|-------- 9---- 8------ 7|
http://classicalguitartablature.blogspot.com/
E|------------------------|------------------------|
B|-------------- 4------ 4|------ 5-------------- 2|
G|------ 4------ 4------ 3|------ 6------ 4------ 2|
D|------------ 4 6---- 6 2|---- 2 6---- 6------ 4 2|
A|------------------------|------ 7------ 6------ 4|
E|------ 5------ 4------ 3|------------------------|
http://classicalguitartablature.blogspot.com/
E|------------------------|------------------------|
B|---------------------- 3|---- 3------ 3------ 5 2|
G|---- 2-------------- 6 4|---- 4------ 2------ 5 2|
D|------------ 2 4------ 2|---- 2------ 4------ 4--|
A|-------- 2--------------|------------------------|
E|-------------- 5--------| 4---- 2------ 4------ 5|
http://classicalguitartablature.blogspot.com/
E|------ 4----------------|------------------------|
B|------ 5------ 2--------| 9------ 2---- 9--------|
G|------------ 4-- 2------| 8------ 2---- 7------ 6|
D|---- 2-------------- 2--|---- 7------ 2 6---- 6--|
A|------------------------| 6------ 4--------------|
E|-------- 4------ 2------|---------------- 6---- 5|
http://classicalguitartablature.blogspot.com/
E|------------------------|------------------------|
B|------ 9-------------- 9|---------------------- 4|
G|------ 9------ 6------ 9|------ 6-------------- 4|
D|---- 7-- 7-- 7------ 7--|---- 7------ 6------ 4--|
A|-------------- 7--------|------------------------|
E|-------- 9------------ 9|------ 7------ 5--------|
http://classicalguitartablature.blogspot.com/
E|---------------------- 2|------------------------|
B|------ 4-------------- 4|------ 4-------------- 4|
G|------ 4------ 8--------|-- 2-- 5------ 4------ 6|
D|---- 4-- 5-- 5------ 6--|------------ 4------ 4 6|
A|---------------------- 3|------ 5------ 6------ 8|
E| 4------ 5---- 7--------|------------------------|
http://classicalguitartablature.blogspot.com/
E|------------------------|------------------------|
B|------------------------|------------------------|
G|-------- 6------ 4------| 6------ 4------------ 2|
D|---- 6------ 6------ 6--|---- 6------ 3------ 3--|
A|-------- 6------ 4------|------------------------|
E|------------------------| 7------ 4---- 3------ 2|
http://classicalguitartablature.blogspot.com/
E|-------------- 0--------|------------------------|
B|------ 2------ 2--------|---- 4-------------- 2--|
G|------ 1------ 2-- 2-- 6|---- 2------ 2------ 3--|
D|---- 2---- 0---------- 4|---- 2------ 2------ 2--|
A|---------------------- 6|------ 4------ 3--------|
E|-------- 1---- 0--------|------------------------|
http://classicalguitartablature.blogspot.com/
E|-------------- 2--------|------------------------|
B|------ 4------ 4------ 4|---- 6------------------|
G| 4---- 4---------- 4-- 4|---- 4------ 4------ 4 2|
D|---- 6------ 4-------- 3|---- 4------ 4------ 3--|
A|------------------------|-------- 6---- 5------ 4|
E| 7---- 4------ 2--------| 1----------------------|
http://classicalguitartablature.blogspot.com/
E|---------------------- 4|------ 4----------------|
B|------ 2------ 5------ 5|------ 5------ 7------ 5|
G|------ 3------ 5------ 6|---- 6 5------ 4------ 4|
D|---- 2------ 2 7---- 7--|------------ 4 4---- 4 3|
A|------ 3----------------|------------------------|
E|---------------- 7---- 6|------ 5------ 4--------|
http://classicalguitartablature.blogspot.com/
E|------------------------|---------------------- 4|
B|---------------- 5---- 7|---- 7------ 5 7------ 5|
G|------------ 2-- 4---- 4|---- 4------ 4-- 4---- 4|
D|---- 3------ 2-- 6-- 6 4|---- 4------ 4-- 4-- 4--|
A|---------------------- 6|------------------------|
E| 3---- 2-------- 0------|-------- 7------ 5---- 4|
http://classicalguitartablature.blogspot.com/
E|------------------------|------------------------|
B|------ 7------ 5--------|---------------------- 2|
G|------ 6------ 4------ 4|-------------- 4------ 2|
D|---- 6-- 6-- 6 6---- 6--|---- 4------ 2------ 4--|
A|---------------- 4---- 6|------ 4----------------|
E|-------- 7--------------|---------------- 7---- 5|
http://classicalguitartablature.blogspot.com/
E|------------------------|------------------------|
B|------ 4------ 5--------|------ 5------ 4------ 5|
G|------ 4-------- 2------| 4---- 2------ 2------ 4|
D|---- 2------ 4 2---- 2--|---- 4------ 2 4---- 4 6|
A|---------------------- 6|-------- 4------ 3------|
E|-------- 4---- 2--------|---------------------- 7|
http://classicalguitartablature.blogspot.com/
E|------------------------|------------------------|
B|------------------------|------------------------|
G|------------------------|------------------------|
D|------------------------|------------------------|
A|------------------------|------------------------|
E|-------------- 4------ 0|------------------------|
http://classicalguitartablature.blogspot.com/
0 com

I Feel The Earth Move (BASIC)

The Beatles' tune fingerstyle chord melody guitar BASIC arrangement played in the key of Eb. I Feel The Earth Move - Carole King - BASIC ARRANGEMENT played in the key of Eb
http://classicalguitartablature.blogspot.com/
E|--------------------------------|--------------------------------|
B|-------- 4-------------- 4------|-------- 4----------------------|
G|-------- 3-------------- 3------|-------- 3-- 2------ 0-- 2------|
D|-------- 5-------------- 5------|-------- 5-- 3------ 3-- 3------|
A| 3-- 3---------- 3-- 3----------| 3-- 3------ 3------------------|
E|--------------------------------|--------------------------------|
http://classicalguitartablature.blogspot.com/
E|--------------------------------|--------------------------------|
B|-------- 4-------------- 4------|-------- 4----------------------|
G|-------- 3-------------- 3------|-------- 3-- 2------ 0-- 2------|
D|-------- 5-------------- 5------|-------- 5-- 3------ 3-- 3------|
A| 3-- 3---------- 3-- 3----------| 3-- 3------ 3------------------|
E|--------------------------------|--------------------------------|
http://classicalguitartablature.blogspot.com/
http://classicalguitartablature.blogspot.com/
E|--------------------------------|--------------------------------|
B|-------- 4-------------- 4------|-------- 4----------------------|
G|-------- 3-------------- 3------|-------- 3-- 2------ 0-- 2------|
D|-------- 5-------------- 5------|-------- 5-- 3------ 3-- 3------|
A| 3-- 3---------- 3-- 3----------| 3-- 3------ 3------------------|
E|--------------------------------|--------------------------------|
http://classicalguitartablature.blogspot.com/
E|--------------------------------|-------------------- 3-- 1------|
B|-------- 4-------------- 4------|-------- 4------------------ 4--|
G|-------- 3-------------- 3------|-------- 3-- 2------------------|
D|-------- 5-------------- 5------|-------- 5-- 3------------------|
A| 3-- 3---------- 3-- 3----------| 3-- 3------ 3------------------|
E|--------------------------------|--------------------------------|
http://classicalguitartablature.blogspot.com/
E| 3------------ 3----------------|------------------ 3---------- 3|
B| 4---- 4------ 4------ 4------ 6|-- 4------ 4------ 4-- 6-- 4-- 4|
G| 3------ 3---- 3------ 3------ 3|-- 3-- 5---------- 3-- 3-- 3-- 3|
D|-------- 5------------ 5------ 3|---------------------- 5-- 5----|
A| 3-- 3---------- 3 3---------- 3|-- 3---------- 3-- 3---------- 3|
E|--------------------------------|--------------------------------|
http://classicalguitartablature.blogspot.com/
E|------ 6-- 3--------------------|------------------ 3---------- 3|
B|------ 4-- 4-- 6-- 4------------|------------------ 4-- 6-- 4----|
G|------ 3-- 3---- 3-- 3-- 3------|------ 3---------- 3-- 3-- 3-- 2|
D|------ 5-------- 5-- 5-- 5------|------ 5-------------- 5-- 5----|
A|-- 3------------ 3-- 3----------| 3 3---------- 3-- 3------------|
E|--------------------------------|--------------------------------|
http://classicalguitartablature.blogspot.com/
E|------ 1------ 1------ 1--------|-------------------- 1----------|
B| 1---- 1-- 4---- 1---- 1--------|------ 1---- 1-- 4-- 1----------|
G|------ 2---- 2-- 2 2-- 2--------|------ 2---- 2-- 2-------- 2----|
D|------------ 1---- 1------------|---- 1------ 1-- 1---------- 1--|
A|--------------------------------|--------------------------------|
E| 1-------------- 1--------------| 1-------------- 1--------------|
http://classicalguitartablature.blogspot.com/
E| 3-- 3 3------------------------|-------------------- 8------ 6--|
B| 4-- 4-- 4----------------------| 6-- 6-- 6---------- 6------ 8--|
G| 3-- 3-- 3----------------------| 7-- 7-- 7---------- 7------ 7--|
D|--------------------------------| 8-- 8-- 8----------------------|
A| 3-- 3-- 3-- 3-- 3-- 3-- 3-- 3--|--------------------------------|
E|--------------------------------| 8-- 8-- 8-- 8-- 8--------------|
http://classicalguitartablature.blogspot.com/
E|--------------------------------|--------------------------------|
B|---- 8------ 8-------------- 4--|---- 4------ 6-------------- 4--|
G|---- 7------ 7------ 5------ 5--|---- 5------ 5---------- 5------|
D|---- 8------ 8-------------- 6--|---- 6-------------- 6----------|
A| 6-------------- 6--------------|--------------------------------|
E|--------------------------------| 4-------------- 4--------------|
http://classicalguitartablature.blogspot.com/
E| 3-- 1------------ 1------------|-------------------- 8------ 6--|
B| 1-- 1-- 4 1-- 4------ 4---- 8--|-------------------- 8------ 8--|
G| 1-- 1-- 1-- 1-- 1---------- 7--|-------- 7---------- 7------ 7--|
D|-------- 1-- 1-- 1---------- 6--|---- 6---- 6--------------------|
A|--------------------------------|--------------------------------|
E| 1-------------- 1--------------| 6-------------- 6--------------|
http://classicalguitartablature.blogspot.com/
E|--------------------------------|--------------------------------|
B|---- 8------ 8-------------- 4--|---- 4------ 6-------------- 4--|
G|---- 7------ 7------ 5------ 5--|---- 5------ 5---------- 5------|
D|---- 8------ 8-------------- 6--|---- 6-------------- 6----------|
A| 6-------------- 6--------------|--------------------------------|
E|--------------------------------| 4-------------- 4--------------|
http://classicalguitartablature.blogspot.com/
E| 3-- 1------------ 1------------|--------------------------------|
B| 1-- 1-- 4 1-- 4------ 4---- 8--|------------ 8---- 4---- 6 4----|
G| 1-- 1-- 1-- 1-- 1---------- 7--|-------- 7-------- 4---- 4 4----|
D|-------- 1-- 1-- 1---------- 6--|---- 6-------------- 3-- 3 3----|
A|--------------------------------|--------------------------------|
E| 1-------------- 1--------------| 6-------------- 3--------------|
http://classicalguitartablature.blogspot.com/
E| 3------------ 3----------------|------------------ 3---------- 3|
B| 4---- 4------ 4------ 4------ 6|-- 4------ 4------ 4-- 6-- 4-- 4|
G| 3------ 3---- 3------ 3------ 3|-- 3-- 5---------- 3-- 3-- 3-- 3|
D|-------- 5------------ 5------ 3|---------------------- 5-- 5----|
A| 3-- 3---------- 3 3---------- 3|-- 3---------- 3-- 3---------- 3|
E|--------------------------------|--------------------------------|
http://classicalguitartablature.blogspot.com/
E|------ 6-- 3--------------------|------------------ 3---------- 3|
B|------ 4-- 4-- 6-- 4------------|------------------ 4-- 6-- 4----|
G|------ 3-- 3---- 3-- 3-- 3------|------ 3---------- 3-- 3-- 3-- 2|
D|------ 5-------- 5-- 5-- 5------|------ 5-------------- 5-- 5----|
A|-- 3------------ 3-- 3----------| 3 3---------- 3-- 3------------|
E|--------------------------------|--------------------------------|
http://classicalguitartablature.blogspot.com/
E|------ 1------ 1------ 1--------|-------------------- 1----------|
B| 1---- 1-- 4---- 1---- 1--------|------ 1---- 1-- 4-- 1----------|
G|------ 2---- 2-- 2 2-- 2--------|------ 2---- 2-- 2-------- 2----|
D|------------ 1---- 1------------|---- 1------ 1-- 1---------- 1--|
A|--------------------------------|--------------------------------|
E| 1-------------- 1--------------| 1-------------- 1--------------|
http://classicalguitartablature.blogspot.com/
E| 3-- 3 3------------------------|-------------------- 8------ 6--|
B| 4-- 4-- 4----------------------| 6-- 6-- 6---------- 6------ 8--|
G| 3-- 3-- 3----------------------| 7-- 7-- 7---------- 7------ 7--|
D|--------------------------------| 8-- 8-- 8----------------------|
A| 3-- 3-- 3-- 3-- 3-- 3-- 3-- 3--|--------------------------------|
E|--------------------------------| 8-- 8-- 8-- 8-- 8--------------|
http://classicalguitartablature.blogspot.com/
E|--------------------------------|--------------------------------|
B|---- 8------ 8-------------- 4--|---- 4------ 6-------------- 4--|
G|---- 7------ 7------ 5------ 5--|---- 5------ 5---------- 5------|
D|---- 8------ 8-------------- 6--|---- 6-------------- 6----------|
A| 6-------------- 6--------------|--------------------------------|
E|--------------------------------| 4-------------- 4--------------|
http://classicalguitartablature.blogspot.com/
E| 3-- 1------------ 1------------|-------------------- 8------ 6--|
B| 1-- 1-- 4 1-- 4------ 4---- 8--|-------------------- 8------ 8--|
G| 1-- 1-- 1-- 1-- 1---------- 7--|-------- 7---------- 7------ 7--|
D|-------- 1-- 1-- 1---------- 6--|---- 6---- 6--------------------|
A|--------------------------------|--------------------------------|
E| 1-------------- 1--------------| 6-------------- 6--------------|
http://classicalguitartablature.blogspot.com/
E|--------------------------------|--------------------------------|
B|---- 8------ 8-------------- 4--|---- 4------ 6-------------- 4--|
G|---- 7------ 7------ 5------ 5--|---- 5------ 5---------- 5------|
D|---- 8------ 8-------------- 6--|---- 6-------------- 6----------|
A| 6-------------- 6--------------|--------------------------------|
E|--------------------------------| 4-------------- 4--------------|
http://classicalguitartablature.blogspot.com/
E| 3-- 1------------ 1------------|--------------------------------|
B| 1-- 1-- 4 1-- 4------ 4---- 8--|------------ 8---- 4---- 6 4----|
G| 1-- 1-- 1-- 1-- 1---------- 7--|-------- 7-------- 4---- 4 4----|
D|-------- 1-- 1-- 1---------- 6--|---- 6-------------- 3-- 3 3----|
A|--------------------------------|--------------------------------|
E| 1-------------- 1--------------| 6-------------- 3--------------|
http://classicalguitartablature.blogspot.com/
E| 3------------ 3----------------|------------------ 3---------- 3|
B| 4---- 4------ 4------ 4------ 6|-- 4------ 4------ 4-- 6-- 4-- 4|
G| 3------ 3---- 3------ 3------ 3|-- 3-- 5---------- 3-- 3-- 3-- 3|
D|-------- 5------------ 5------ 3|---------------------- 5-- 5----|
A| 3-- 3---------- 3 3---------- 3|-- 3---------- 3-- 3---------- 3|
E|--------------------------------|--------------------------------|
http://classicalguitartablature.blogspot.com/
E|------ 6-- 3--------------------|------------------ 3---------- 3|
B|------ 4-- 4-- 6-- 4------------|------------------ 4-- 6-- 4----|
G|------ 3-- 3---- 3-- 3-- 3------|------ 3---------- 3-- 3-- 3-- 2|
D|------ 5-------- 5-- 5-- 5------|------ 5-------------- 5-- 5----|
A|-- 3------------ 3-- 3----------| 3 3---------- 3-- 3------------|
E|--------------------------------|--------------------------------|
http://classicalguitartablature.blogspot.com/
E|------ 1------ 1------ 1--------|-------------------- 1----------|
B| 1---- 1-- 4---- 1---- 1--------|------ 1---- 1-- 4-- 1----------|
G|------ 2---- 2-- 2 2-- 2--------|------ 2---- 2-- 2-------- 2----|
D|------------ 1---- 1------------|---- 1------ 1-- 1---------- 1--|
A|--------------------------------|--------------------------------|
E| 1-------------- 1--------------| 1-------------- 1--------------|
http://classicalguitartablature.blogspot.com/
E| 3-- 3 3------------------------|--------------------------------|
B| 4-- 4-- 4----------------------| 6-- 6-- 6-------------------- 4|
G| 3-- 3-- 3----------------------| 7-- 7-- 7-------------------- 5|
D|--------------------------------| 8-- 8-- 8-------------------- 6|
A| 3-- 3-- 3-- 3-- 3-- 3-- 3-- 3--|--------------------------------|
E|--------------------------------| 8-- 8-- 8-- 8-- 8 8---- 8-- 8--|
http://classicalguitartablature.blogspot.com/
E|--------------------------------|--------------------------------|
B|-- 4-- 4------------------------| 3-- 3-- 3----------------------|
G|---- 5 5------------------------| 4-- 4-- 4----------------------|
D|---- 6-- 6----------------------| 3-- 3-- 3----------------------|
A| 3-- 3-- 3-- 3-- 3-- 3-- 3-- 3--| 3-- 3-- 3-- 3-- 3-- 3-- 3-- 3--|
E|--------------------------------|--------------------------------|
http://classicalguitartablature.blogspot.com/
E|--------------------------------|--------------------------------|
B|-------- 4-------------- 4------|-------- 4----------------------|
G|-------- 3-------------- 3------|-------- 3-- 2------ 0-- 2------|
D|-------- 5-------------- 5------|-------- 5-- 3------ 3-- 3------|
A| 3-- 3---------- 3-- 3----------| 3-- 3------ 3------------------|
E|--------------------------------|--------------------------------|
http://classicalguitartablature.blogspot.com/
E|--------------------------------|--------------------------------|
B|-------- 4-------------- 4------|-------- 4----------------------|
G|-------- 3-------------- 3------|-------- 3-- 2------ 0-- 2------|
D|-------- 5-------------- 5------|-------- 5-- 3------ 3-- 3------|
A| 3-- 3---------- 3-- 3----------| 3-- 3------ 3------------------|
E|--------------------------------|--------------------------------|
http://classicalguitartablature.blogspot.com/
E|--------------------------------|--------------------------------|
B|-------- 4----------------------|--------------------------------|
G|-------- 3----------------------|--------------------------------|
D|-------- 5----------------------|--------------------------------|
A| 3-- 3--------------------------|--------------------------------|
E|--------------------------------|--------------------------------|
http://classicalguitartablature.blogspot.com/
0 com

Romeo And Juliet (BASIC)

Love Theme from Romeo And Juliet fingerstyle chord melody guitar BASIC arrangement played in the key of Em. Romeo And Juliet - Love Theme - BASIC ARRANGEMENT played in the key of Em
http://classicalguitartablature.blogspot.com/
E| 7------------ 7------ 2|---------------- 2 3----|
B| 8---------- 8----10-- 1|------------ 1----------|
G| 9-- 9---------------- 2|-------- 2--------------|
D|-------- 9--------------|---- 2------------------|
A|---------------------- 0|------------------------|
E| 0----------------------|------------------------|
http://classicalguitartablature.blogspot.com/
E| 5---------- 2 5-- 3----| 0-------- 0---- 3-- 2--|
B| 3-- 3------------------| 0----------------------|
G| 4-- 4-- 4------------ 0|-------- 0--------------|
D|------------------------|---- 0------------------|
A| 2----------------------|------------------------|
E|---------------------- 0|------------------------|
http://classicalguitartablature.blogspot.com/
http://classicalguitartablature.blogspot.com/
E|------------------------| 0-------- 0------------|
B| 0-------- 0-- 3---- 0--| 0-------- 0-- 3-- 1-- 3|
G| 4---- 4----------------| 0------ 0--------------|
D|---- 4------------------|---- 2------------------|
A| 5----------------------| 3----------------------|
E|------------------------|------------------------|
http://classicalguitartablature.blogspot.com/
E|------------------------|------------------------|
B|---------- 3-- 1-- 0----|---------- 0---------- 0|
G| 2------ 0-- 0 0-- 0----| 2------ 2-- 2 0-- 2-- 0|
D| 0-- 0------------------|---- 2------------------|
A| 2----------------------| 0----------------------|
E|------------------------|------------------------|
http://classicalguitartablature.blogspot.com/
E|---------- 0-- 3-- 2----|------------------------|
B|------------ 0-- 0-- 0--| 0-------- 0-- 3---- 0--|
G|-------- 0--------------| 4---- 4----------------|
D|-- 2--------------------|---- 4------------------|
A|------------------------| 5----------------------|
E| 0----------------------|------------------------|
http://classicalguitartablature.blogspot.com/
E| 0-------------- 0---- 5|---------------- 5---- 2|
B| 0---------- 0-------- 5|------------ 5----------|
G|------ 0----------------|-------- 5--------------|
D|---- 2-------------- 2--|---- 7-------------- 7--|
A| 3----------------------| 0----------------------|
E|------------------------|------------------------|
http://classicalguitartablature.blogspot.com/
E|------------------------| 3-------- 2-- 0------ 3|
B|------------ 3----------| 0---------------- 3-- 0|
G|-------- 4------ 4------| 0------ 0------------ 0|
D|---- 4-------------- 4--|---- 0------------------|
A| 2----------------------|------------------------|
E|------------------------| 0-------------------- 0|
http://classicalguitartablature.blogspot.com/
E|-- 2-- 0-------------- 0|------------------------|
B|-- 0------ 0-- 3------ 0|---------- 0------------|
G|-------------- 4------ 0|------ 0------ 0--------|
D|-------------- 3-- 4----|---- 2------------ 2----|
A|-------------- 2--------|------------------------|
E|------------------------| 0----------------------|
http://classicalguitartablature.blogspot.com/
E|---------------- 3------| 7------------ 7--------|
B|------------ 0------ 0--| 8---------- 8 8-- 8--10|
G|------ 0----------------| 7---- 7-------- 7 7----|
D|---- 2------------------|---- 9------------ 9----|
A|------------------------|10--------------10------|
E| 0----------------------|------------------------|
http://classicalguitartablature.blogspot.com/
E|---------------------- 8|-------------- 5------ 7|
B|------------10--12---- 5|---------- 5-- 5------ 8|
G|------11--------11---- 5|------ 5------ 5--------|
D|--12----------------12--|-- 7-------------- 7----|
A|------------------------| 0------------ 0--------|
E|10--------------10------|------------------------|
http://classicalguitartablature.blogspot.com/
E|---------------------- 5|---------------------- 3|
B|-------------- 8--------| 6------------ 6------ 1|
G| 7------ 7---- 7--------| 5------ 5---- 5--------|
D| 9-- 9---- 9------ 9----|---- 7------ 7---- 7----|
A|10------------10--------| 8------------ 8------ 3|
E|------------------------|------------------------|
http://classicalguitartablature.blogspot.com/
E|-------------- 0--------| 2----------------------|
B|-------------- 1--------| 3------------ 3--------|
G|------ 0----------------|-------- 4---- 4--------|
D|-- 2------ 2-------- 2--|---- 4------ 4------ 4--|
A|---------------- 3------| 2------------ 2--------|
E|------------------------|------------------------|
http://classicalguitartablature.blogspot.com/
E| 0---------- 0 3-- 2----|------------------------|
B| 0----------------------| 0-------- 0-- 3---- 0--|
G| 0------ 0--------------| 4---- 4----------------|
D|---- 2------------------|---- 4------------------|
A|------------------------| 5----------------------|
E| 0----------------------|------------------------|
http://classicalguitartablature.blogspot.com/
E| 0-------- 0------------|------------------------|
B| 0-------- 0-- 3-- 1-- 3|---------- 3-- 1-- 0----|
G| 0------ 0--------------| 2------ 0-- 0 0-- 0----|
D|---- 2------------------| 0-- 0------------------|
A| 3----------------------| 2----------------------|
E|------------------------|------------------------|
http://classicalguitartablature.blogspot.com/
E|------------------------|---------- 0-- 3-- 2----|
B|---------- 0---------- 0|------------ 0-- 0-- 0--|
G| 2------ 2-- 2 0-- 2-- 0|-------- 0--------------|
D|---- 2------------------|-- 2--------------------|
A| 0----------------------|------------------------|
E|------------------------| 0----------------------|
http://classicalguitartablature.blogspot.com/
E|------------------------| 0-------------- 0---- 5|
B| 0-------- 0-- 3---- 0--| 0---------- 0-------- 5|
G| 4---- 4----------------|------ 0----------------|
D|---- 4------------------|---- 2-------------- 2--|
A| 5----------------------| 3----------------------|
E|------------------------|------------------------|
http://classicalguitartablature.blogspot.com/
E|---------------- 5---- 2|------------------------|
B|------------ 5----------|------------ 3----------|
G|-------- 5--------------|-------- 4------ 4------|
D|---- 7-------------- 7--|---- 4-------------- 4--|
A| 0----------------------| 2----------------------|
E|------------------------|------------------------|
http://classicalguitartablature.blogspot.com/
E| 3-------- 2-- 0------ 3|-- 2-- 0-------------- 0|
B| 0---------------- 3-- 0|-- 0------ 0-- 3------ 0|
G| 0------ 0------------ 0|-------------- 4------ 0|
D|---- 0------------------|-------------- 3-- 4----|
A|------------------------|-------------- 2--------|
E| 0-------------------- 0|------------------------|
http://classicalguitartablature.blogspot.com/
E|------------------------|---------------- 3------|
B|---------- 0------------|------------ 0------ 0--|
G|------ 0------ 0--------|------ 0----------------|
D|---- 2------------ 2----|---- 2------------------|
A|------------------------|------------------------|
E| 0----------------------| 0----------------------|
http://classicalguitartablature.blogspot.com/
E| 7------------ 7------ 2|---------------- 2 3----|
B| 8---------- 8----10-- 1|------------ 1----------|
G| 9-- 9---------------- 2|-------- 2--------------|
D|-------- 9--------------|---- 2------------------|
A|---------------------- 0|------------------------|
E| 0----------------------|------------------------|
http://classicalguitartablature.blogspot.com/
E| 5---------- 2 5-- 3----| 0---------- 0 3-- 2----|
B| 3-- 3------------------| 0----------------------|
G| 4-- 4-- 4--------------| 0------ 0--------------|
D|------------------------|---- 2---------------- 4|
A| 2----------------------|------------------------|
E|------------------------| 0-------------------- 0|
http://classicalguitartablature.blogspot.com/
E|------------------------|------------------------|
B| 5----------------------|------------------------|
G| 0----------------------|------------------------|
D|------------------------|------------------------|
A|------------------------|------------------------|
E|------------------------|------------------------|
http://classicalguitartablature.blogspot.com/