To celebrate the anniversary, I am giving you (finally...) : iPhone LickByNeck !!!!!!

Forever Young (BASIC)

Alphaville's classic tune fingerstyle chord melody guitar BASIC arrangement played in the key of C. Forever Young - Alphaville - BASIC ARRANGEMENT played in the key of C
http://classicalguitartablature.blogspot.com/
E| 3-- 0-- 3-- 0------------------|---- 0------ 0------------------|
B| 1-- 1 1------ 1------ 3--------|-------- 1-- 1 1---- 1------ 1--|
G|-- 0------ 0---- 0-- 0-- 0-- 0--| 2-------- 2------------ 2---- 2|
D|------------------ 0------ 0-- 0| 2 2------------ 3-------- 3----|
A| 3------ 3----------------------| 0------ 0----------------------|
E|---------------- 3------ 3------|---------------- 1------ 1------|
http://classicalguitartablature.blogspot.com/
E|----10----10-------- 5---- 5----|---- 8---- 8-- 0-------- 0-- 3--|
B|--12----12----12------ 6------ 6|--10----10----10 1-- 1-- 0-- 0--|
G|------12--12-- 7---------- 7----|10----10----10-- 2-- 2----------|
D|-------------- 7----------------|------------------ 2------ 0-- 0|
A|10----10------ 5-------- 5------| 8---- 8-------- 0------ 2------|
E|--------------------------------|--------------------------------|
http://classicalguitartablature.blogspot.com/
http://classicalguitartablature.blogspot.com/
E|------ 3 3 3 3 3---- 1 0 0---- 0|---- 0 0 0 3-- 1-- 0------------|
B|-------- 1 1 1 1 0-- 0 0 0 3-- 1|-- 1-- 1 1 1-- 1-- 1-- 1 1 3 3--|
G|---- 0---------- 0-- 0-- 0-- 0 2| 2---- 2 2---- 2 2---- 2 2 2 0--|
D|-- 2---------------------- 0----|------------ 2------ 3 3 3------|
A| 3------ 3----------------------| 0---- 0------------------------|
E|---------------- 3------ 3------|-------------- 1-------- 1---- 3|
http://classicalguitartablature.blogspot.com/
E|-------------- 0----------------|--------------------------------|
B|---- 3 3 1 3 1-- 1-- 3 1-- 1-- 1|---- 1 1-- 1---- 3------------ 0|
G|-- 0-- 0 0 0 0 2-------- 2 2-- 2| 2 2-- 2 2-- 2-- 2 2 2-- 0-- 0--|
D| 0---- 0 0-- 0---- 2-- 2--------|-- 3------------ 2 2 2 2-- 0----|
A|---------------- 0------ 0------|---------------- 0------ 2------|
E|-------- 3----------------------| 1---- 1------------------------|
http://classicalguitartablature.blogspot.com/
E|------ 3 3 3 3 3-- 1-- 0 0---- 0|---- 0 0 0 3-- 1-- 0------------|
B|-------- 1-- 1 0---- 0 0 0 3-- 1|-- 1-- 1 1 1-- 1-- 1-- 1 1 3 3--|
G|---- 0---------- 0-- 0-- 0 0-- 2| 2---- 2 2---- 2 2---- 2 2 2 0--|
D|-- 2---------------------- 0----|------------ 2------ 3 3 3------|
A| 3------ 3----------------------| 0---- 0------------------------|
E|---------------- 3------ 3------|-------------- 1-------- 1---- 3|
http://classicalguitartablature.blogspot.com/
E|-------------- 0----------------|--------------------------------|
B|---- 3 3 1 3 1-- 1-- 3 1-- 1-- 1|---- 1 1-- 1-- 3------------ 0--|
G|-- 0-- 0 0 0 0 2-------- 2 2-- 2| 2 2-- 2 2-- 2 2-- 2 2 0-- 0----|
D| 0---- 0 0-- 0---- 2-- 2--------|-- 3---------- 2-- 2 2 2-- 0----|
A|---------------- 0------ 0------|---------------- 0------ 2------|
E|-------- 3----------------------| 1---- 1------------------------|
http://classicalguitartablature.blogspot.com/
E|------ 3 5-- 3 3-------- 0-- 1 0|------ 3 1-- 0------------------|
B|---- 5-- 5-- 5 0---- 0 3 0-- 0 0|-------- 1-- 1 1----------------|
G|-- 5---- 5 5-- 0---- 0 0--------|---- 2-- 2 2-- 2---- 2------ 2--|
D|------------------ 0-- 0--------|-- 2---------- 3-- 3-- 3-- 3-- 3|
A| 3------ 3----------------------| 0------ 0----------------------|
E|---------------- 3------ 3------|---------------- 1------ 1------|
http://classicalguitartablature.blogspot.com/
E|---------- 0 1 0----------------|-------------------- 0-- 1------|
B|-- 3 3 3 3---- 1-- 3-- 1--------|-- 1 1------------ 3 3----------|
G|---- 0 0-- 0-- 2-------- 2-- 2--|---- 2-- 2---- 2-- 0-------- 0--|
D|-- 0---- 0------ 2-------- 2----| 3-------- 3---- 0-------- 0----|
A|---------------- 0---- 0--------|--------------------------------|
E| 3------ 3----------------------| 1-------------- 3------ 3------|
http://classicalguitartablature.blogspot.com/
E|------ 3 5-- 3 3-------- 0-- 1 0|------ 3 1-- 0------------------|
B|---- 5-- 5-- 5 0---- 0 3 0-- 0 0|-------- 1-- 1 1----------------|
G|-- 5---- 5 5-- 0---- 0 0--------|---- 2-- 2 2-- 2---- 2------ 2--|
D|------------------ 0-- 0--------|-- 2---------- 3-- 3-- 3-- 3-- 3|
A| 3------ 3----------------------| 0------ 0----------------------|
E|---------------- 3------ 3------|---------------- 1------ 1------|
http://classicalguitartablature.blogspot.com/
E|---------- 0 1 0----------------|-------------------- 0-- 1------|
B|-- 3 3 3 3---- 1-- 3-- 1--------|-- 1 1------------ 3 3----------|
G|---- 0 0-- 0-- 2-------- 2-- 2--|---- 2-- 2---- 2-- 0-------- 0--|
D|-- 0---- 0------ 2-------- 2----| 3-------- 3---- 0-------- 0----|
A|---------------- 0---- 0--------|--------------------------------|
E| 3------ 3----------------------| 1-------------- 3------ 3------|
http://classicalguitartablature.blogspot.com/
E| 3-- 0-- 3-- 0------------------|---- 0------ 0------------------|
B| 1-- 1 1------ 1------ 3--------|-------- 1-- 1 1---- 1------ 1--|
G|-- 0------ 0---- 0-- 0-- 0-- 0--| 2-------- 2------------ 2---- 2|
D|------------------ 0------ 0-- 0| 2 2------------ 3-------- 3----|
A| 3------ 3----------------------| 0------ 0----------------------|
E|---------------- 3------ 3------|---------------- 1------ 1------|
http://classicalguitartablature.blogspot.com/
E|----10----10-------- 5---- 5----|---- 8---- 8-- 0-------- 0-- 3--|
B|--12----12----12------ 6------ 6|--10----10----10 1-- 1-- 0-- 0--|
G|------12--12-- 7---------- 7----|10----10----10-- 2-- 2----------|
D|-------------- 7----------------|------------------ 2------ 0-- 0|
A|10----10------ 5-------- 5------| 8---- 8-------- 0------ 2------|
E|--------------------------------|--------------------------------|
http://classicalguitartablature.blogspot.com/
E| 3------------------------------|--------------------------------|
B| 1------------------------------|--------------------------------|
G| 0------------------------------|--------------------------------|
D|--------------------------------|--------------------------------|
A| 3------------------------------|--------------------------------|
E|--------------------------------|--------------------------------|
http://classicalguitartablature.blogspot.com/

0 ความคิดเห็น:

แสดงความคิดเห็น