To celebrate the anniversary, I am giving you (finally...) : iPhone LickByNeck !!!!!!

Romeo And Juliet (BASIC)

Love Theme from Romeo And Juliet fingerstyle chord melody guitar BASIC arrangement played in the key of Em. Romeo And Juliet - Love Theme - BASIC ARRANGEMENT played in the key of Em
http://classicalguitartablature.blogspot.com/
E| 7------------ 7------ 2|---------------- 2 3----|
B| 8---------- 8----10-- 1|------------ 1----------|
G| 9-- 9---------------- 2|-------- 2--------------|
D|-------- 9--------------|---- 2------------------|
A|---------------------- 0|------------------------|
E| 0----------------------|------------------------|
http://classicalguitartablature.blogspot.com/
E| 5---------- 2 5-- 3----| 0-------- 0---- 3-- 2--|
B| 3-- 3------------------| 0----------------------|
G| 4-- 4-- 4------------ 0|-------- 0--------------|
D|------------------------|---- 0------------------|
A| 2----------------------|------------------------|
E|---------------------- 0|------------------------|
http://classicalguitartablature.blogspot.com/
http://classicalguitartablature.blogspot.com/
E|------------------------| 0-------- 0------------|
B| 0-------- 0-- 3---- 0--| 0-------- 0-- 3-- 1-- 3|
G| 4---- 4----------------| 0------ 0--------------|
D|---- 4------------------|---- 2------------------|
A| 5----------------------| 3----------------------|
E|------------------------|------------------------|
http://classicalguitartablature.blogspot.com/
E|------------------------|------------------------|
B|---------- 3-- 1-- 0----|---------- 0---------- 0|
G| 2------ 0-- 0 0-- 0----| 2------ 2-- 2 0-- 2-- 0|
D| 0-- 0------------------|---- 2------------------|
A| 2----------------------| 0----------------------|
E|------------------------|------------------------|
http://classicalguitartablature.blogspot.com/
E|---------- 0-- 3-- 2----|------------------------|
B|------------ 0-- 0-- 0--| 0-------- 0-- 3---- 0--|
G|-------- 0--------------| 4---- 4----------------|
D|-- 2--------------------|---- 4------------------|
A|------------------------| 5----------------------|
E| 0----------------------|------------------------|
http://classicalguitartablature.blogspot.com/
E| 0-------------- 0---- 5|---------------- 5---- 2|
B| 0---------- 0-------- 5|------------ 5----------|
G|------ 0----------------|-------- 5--------------|
D|---- 2-------------- 2--|---- 7-------------- 7--|
A| 3----------------------| 0----------------------|
E|------------------------|------------------------|
http://classicalguitartablature.blogspot.com/
E|------------------------| 3-------- 2-- 0------ 3|
B|------------ 3----------| 0---------------- 3-- 0|
G|-------- 4------ 4------| 0------ 0------------ 0|
D|---- 4-------------- 4--|---- 0------------------|
A| 2----------------------|------------------------|
E|------------------------| 0-------------------- 0|
http://classicalguitartablature.blogspot.com/
E|-- 2-- 0-------------- 0|------------------------|
B|-- 0------ 0-- 3------ 0|---------- 0------------|
G|-------------- 4------ 0|------ 0------ 0--------|
D|-------------- 3-- 4----|---- 2------------ 2----|
A|-------------- 2--------|------------------------|
E|------------------------| 0----------------------|
http://classicalguitartablature.blogspot.com/
E|---------------- 3------| 7------------ 7--------|
B|------------ 0------ 0--| 8---------- 8 8-- 8--10|
G|------ 0----------------| 7---- 7-------- 7 7----|
D|---- 2------------------|---- 9------------ 9----|
A|------------------------|10--------------10------|
E| 0----------------------|------------------------|
http://classicalguitartablature.blogspot.com/
E|---------------------- 8|-------------- 5------ 7|
B|------------10--12---- 5|---------- 5-- 5------ 8|
G|------11--------11---- 5|------ 5------ 5--------|
D|--12----------------12--|-- 7-------------- 7----|
A|------------------------| 0------------ 0--------|
E|10--------------10------|------------------------|
http://classicalguitartablature.blogspot.com/
E|---------------------- 5|---------------------- 3|
B|-------------- 8--------| 6------------ 6------ 1|
G| 7------ 7---- 7--------| 5------ 5---- 5--------|
D| 9-- 9---- 9------ 9----|---- 7------ 7---- 7----|
A|10------------10--------| 8------------ 8------ 3|
E|------------------------|------------------------|
http://classicalguitartablature.blogspot.com/
E|-------------- 0--------| 2----------------------|
B|-------------- 1--------| 3------------ 3--------|
G|------ 0----------------|-------- 4---- 4--------|
D|-- 2------ 2-------- 2--|---- 4------ 4------ 4--|
A|---------------- 3------| 2------------ 2--------|
E|------------------------|------------------------|
http://classicalguitartablature.blogspot.com/
E| 0---------- 0 3-- 2----|------------------------|
B| 0----------------------| 0-------- 0-- 3---- 0--|
G| 0------ 0--------------| 4---- 4----------------|
D|---- 2------------------|---- 4------------------|
A|------------------------| 5----------------------|
E| 0----------------------|------------------------|
http://classicalguitartablature.blogspot.com/
E| 0-------- 0------------|------------------------|
B| 0-------- 0-- 3-- 1-- 3|---------- 3-- 1-- 0----|
G| 0------ 0--------------| 2------ 0-- 0 0-- 0----|
D|---- 2------------------| 0-- 0------------------|
A| 3----------------------| 2----------------------|
E|------------------------|------------------------|
http://classicalguitartablature.blogspot.com/
E|------------------------|---------- 0-- 3-- 2----|
B|---------- 0---------- 0|------------ 0-- 0-- 0--|
G| 2------ 2-- 2 0-- 2-- 0|-------- 0--------------|
D|---- 2------------------|-- 2--------------------|
A| 0----------------------|------------------------|
E|------------------------| 0----------------------|
http://classicalguitartablature.blogspot.com/
E|------------------------| 0-------------- 0---- 5|
B| 0-------- 0-- 3---- 0--| 0---------- 0-------- 5|
G| 4---- 4----------------|------ 0----------------|
D|---- 4------------------|---- 2-------------- 2--|
A| 5----------------------| 3----------------------|
E|------------------------|------------------------|
http://classicalguitartablature.blogspot.com/
E|---------------- 5---- 2|------------------------|
B|------------ 5----------|------------ 3----------|
G|-------- 5--------------|-------- 4------ 4------|
D|---- 7-------------- 7--|---- 4-------------- 4--|
A| 0----------------------| 2----------------------|
E|------------------------|------------------------|
http://classicalguitartablature.blogspot.com/
E| 3-------- 2-- 0------ 3|-- 2-- 0-------------- 0|
B| 0---------------- 3-- 0|-- 0------ 0-- 3------ 0|
G| 0------ 0------------ 0|-------------- 4------ 0|
D|---- 0------------------|-------------- 3-- 4----|
A|------------------------|-------------- 2--------|
E| 0-------------------- 0|------------------------|
http://classicalguitartablature.blogspot.com/
E|------------------------|---------------- 3------|
B|---------- 0------------|------------ 0------ 0--|
G|------ 0------ 0--------|------ 0----------------|
D|---- 2------------ 2----|---- 2------------------|
A|------------------------|------------------------|
E| 0----------------------| 0----------------------|
http://classicalguitartablature.blogspot.com/
E| 7------------ 7------ 2|---------------- 2 3----|
B| 8---------- 8----10-- 1|------------ 1----------|
G| 9-- 9---------------- 2|-------- 2--------------|
D|-------- 9--------------|---- 2------------------|
A|---------------------- 0|------------------------|
E| 0----------------------|------------------------|
http://classicalguitartablature.blogspot.com/
E| 5---------- 2 5-- 3----| 0---------- 0 3-- 2----|
B| 3-- 3------------------| 0----------------------|
G| 4-- 4-- 4--------------| 0------ 0--------------|
D|------------------------|---- 2---------------- 4|
A| 2----------------------|------------------------|
E|------------------------| 0-------------------- 0|
http://classicalguitartablature.blogspot.com/
E|------------------------|------------------------|
B| 5----------------------|------------------------|
G| 0----------------------|------------------------|
D|------------------------|------------------------|
A|------------------------|------------------------|
E|------------------------|------------------------|
http://classicalguitartablature.blogspot.com/

0 ความคิดเห็น:

แสดงความคิดเห็น