To celebrate the anniversary, I am giving you (finally...) : iPhone LickByNeck !!!!!!

Sailing-Rod Stewart

Rod Stewart 's hit fingerstyle chord melody guitar arrangement played in the key of D. Sailing played in the key of D.
http://classicalguitartablature.blogspot.com/
E|--------------------------------|--------------------------------|
B|-- 0------ 0---- 0-------- 0----|---- 3------ 3------ 3------ 3--|
G|---- 5------------ 5------ 5----|-- 2------ 2------ 2------ 2----|
D| 5-- 5 5---- 5 5------ 5---- 5--|------ 4------ 4------ 4------ 4|
A| 3---- 3-------- 3------ 3------| 5------ 5------ 5------ 5------|
E|--------------------------------|--------------------------------|
http://classicalguitartablature.blogspot.com/
E|--------------------------------|--------------------------------|
B|-- 0------ 0---- 0-------- 0----|---- 3------ 3------ 2----------|
G|---- 5------------ 5------ 5----|-- 2------ 2-------- 2-- 2-- 4--|
D| 5-- 5 5---- 5 5------ 5---- 5--|------ 4------ 4-- 2------ 2-- 2|
A| 3---- 3-------- 3------ 3---- 5|-------- 5------ 0------ 4------|
E|--------------------------------|--------------------------------|
http://classicalguitartablature.blogspot.com/
http://classicalguitartablature.blogspot.com/
E|---------------------------- 5--| 7------ 7------------ 7------ 5|
B| 3-- 3 3-------------- 3--------| 7---- 710----10----1210----10--|
G| 2-- 2---- 2------ 2-- 7--------|---- 7------ 9----11-------- 7--|
D|-- 4------ 4 4-- 4-------- 5----|-- 7------ 7---- 9------ 7------|
A| 5------------------------------|---------------------- 9--------|
E|------ 2------ 5------ 6--------| 7------ 9------10--------------|
http://classicalguitartablature.blogspot.com/
E|------------------------------ 2|--------------------------------|
B|---- 3 8---- 8------ 3 8-- 7----| 2------------------ 2 8-- 7-- 7|
G|-- 4------ 7------ 4-- 7-- 7----|---- 2---- 6------ 2-- 5-- 8-- 7|
D|-- 4---- 5------ 5------ 5-- 5--|-- 2-- 2-- 4 4-- 2-------- 7-- 7|
A|-------------- 5------ 7--------|-------------- 4------ 6-- 8-- 7|
E| 3------ 7-------------------- 2|-------- 5----------------------|
http://classicalguitartablature.blogspot.com/
E|---------------------- 2-- 0----|--------------------------------|
B|------ 7 5-- 5------ 5 3-- 2-- 5|---- 5 3---- 3 3---------- 0-- 7|
G|---- 7 4-- 4------ 4---- 3-- 0--|-- 7-- 4-- 4-------- 4 2-- 2----|
D|-- 5------ 5---- 5--------------| 7------ 4-------- 4-- 4-- 2-- 2|
A|-------- 5---- 4------ 3-- 1----|--------------------------------|
E|------------------------------ 7|------ 5-------- 4------ 3-- 2--|
http://classicalguitartablature.blogspot.com/
E|--------------------------------|------------------------ 5 7-- 7|
B|-------- 5------------ 5-- 3-- 3|---- 3------ 3------ 2-- 3 7-- 7|
G| 7 5---- 4-- 2-- 7---- 7-- 4-- 4|-- 4------ 3 3---- 2-- 4-- 6----|
D| 5-- 7 7-- 5 5 5-- 8-- 5-- 5-- 5| 4------ 2------ 2--------------|
A| 7-- 6-- 5-- 4------------------|-------------------------- 6----|
E|---------------- 8-- 7 6-- 5-- 4|-------- 3---- 2------ 0--------|
http://classicalguitartablature.blogspot.com/
E|------ 7 5-- 5------------ 5----| 7-- 7-- 7---- 7------ 7--------|
B|---- 7-- 2-- 2------ 7 7--------| 7-- 7-- 7 7-------- 510--10--10|
G|-- 6------ 2------ 9-- 7--------| 7 7------ 7------ 4---- 9 8-- 7|
D|------------------ 7---- 5------|---------------- 5----------10--|
A| 5------ 4----------------------|---------------------- 9-- 8-- 7|
E|-------------- 8------ 7--------| 5------ 4---- 3----------------|
http://classicalguitartablature.blogspot.com/
E|---------------------- 3-- 2-- 2|------------------------------ 2|
B|----10 8---- 8------ 5 5-- 5-- 3|---- 3---- 5-------- 5 8-- 7-- 3|
G|-- 7-- 5-- 5------ 4---- 2-- 2 3|-- 3-- 7---- 7 7-- 7-- 5-- 5----|
D| 9------ 7------ 5--------------| 2------ 5------ 5------ 5-- 5--|
A|------ 6-------- 5---- 4------ 3|--------------------------------|
E|--------------------------------|------ 7------ 6------ 5------ 4|
http://classicalguitartablature.blogspot.com/
E|---- 2--------------------------|------------------------------ 2|
B|-- 3---- 5-- 5-------- 3 7-- 5--| 5---- 5---- 3------ 3-------- 3|
G| 4------ 4 4-------- 2-- 6-- 6--| 4-- 4 2-- 2------ 2-- 2-- 4----|
D|---------- 2------ 2------ 8 5 5|-- 4---- 2------ 5------ 3 4 4--|
A|------------------------ 7-- 6--| 5---- 3------ 2------ 1--------|
E|-------- 3------ 2--------------|-------------------------- 5-- 4|
http://classicalguitartablature.blogspot.com/
E|------ 0------------------------|--------------------------------|
B|------ 0-------------- 5---- 3--| 3------------------------------|
G| 4-- 3 2 2-- 2 7------ 5 4-- 4--| 5 4 5-- 4 5---- 4 5---- 4 5----|
D|---- 2-- 2-- 0---- 5------ 5-- 3| 5---- 5---- 5------ 5------ 5 5|
A|---------------- 7-- 6-- 5-- 4--| 3------ 3---- 3------ 3------ 5|
E|-- 3-- 2-- 1--------------------|--------------------------------|
http://classicalguitartablature.blogspot.com/
E|--------------------------------|--------------------------------|
B| 3------------------------------|--------------------------------|
G| 5------------------------------|--------------------------------|
D|--------------------------------|--------------------------------|
A|--------------------------------|--------------------------------|
E|--------------------------------|--------------------------------|
http://classicalguitartablature.blogspot.com/

0 ความคิดเห็น:

แสดงความคิดเห็น