To celebrate the anniversary, I am giving you (finally...) : iPhone LickByNeck !!!!!!

Can't Smile Without You (BASIC)

Barry Manilow's tune fingerstyle chord melody guitar BASIC arrangement played in the key of G. Can't Smile Without You - Barry Manilow - BASIC ARRANGEMENT played in the key of G
http://classicalguitartablature.blogspot.com/
E|------ 5---- 3------------------|------ 5---- 3------------ 0----|
B| 0-- 3 3---- 3------------------| 0-- 3 3---- 3------ 3------ 0--|
G| 2---------- 2------ 2------ 2--|---- 2 2------------ 2------ 2 5|
D| 0------------------ 0------ 0--| 0-- 0-------------- 0------ 0--|
A|--------------------------------|------------------------------ 0|
E| 3------ 3------ 3------ 3------| 0------ 0------ 0------ 0------|
http://classicalguitartablature.blogspot.com/
E|------ 7---- 5------------------|--------------------------------|
B|---- 5 5---- 5------------------|-------- 7------ 8------10------|
G|------ 5---- 5------ 5------ 5--| 5------ 5------ 5------ 7------|
D|-------------------- 5------ 5--| 5------ 7------ 5------ 7------|
A|-------- 0------ 0------ 0------| 5------ 5------ 7------ 9------|
E|--------------------------------|--------------------------------|
http://classicalguitartablature.blogspot.com/
http://classicalguitartablature.blogspot.com/
E| 5------------ 3------------ 2 2|------------ 2 3----------------|
B| 0---------- 0------------------|------ 0------------------------|
G| 0------ 0------------ 0--------|---- 0---------------- 0--------|
D|---- 0-------------- 0----------|-------------------- 0------ 0--|
A|---------------- 5--------------|-------------- 5----------------|
E| 3---------------------------- 3|------------------------------ 0|
http://classicalguitartablature.blogspot.com/
E|------ 5------ 3------------ 2 2|-------------- 3----------------|
B|---- 0--------------------------|------------ 0-------------- 0--|
G|---- 0------ 0---------- 0------|-------- 0-------------- 0------|
D|---- 0-------------- 0----------|---- 0-------------- 0----------|
A|-------------- 2----------------|-------------- 2----------------|
E|--------------------------------| 0------------------------------|
http://classicalguitartablature.blogspot.com/
E| 7---------- 5---------------- 7|---------- 5------------------ 7|
B| 5---------------------- 5 8-- 5|---------------------------- 5 5|
G| 5------ 5------------ 5------ 5|------ 5-------------- 5------ 5|
D|---- 5-------------- 5----------|---- 5-------------- 5----------|
A| 0---------------------------- 0|------------------------------ 5|
E|---------------- 0--------------|-------------- 0----------------|
http://classicalguitartablature.blogspot.com/
E|---- 5 7---- 5---------------- 7|---- 5-- 7--10------------------|
B|---- 5 5---- 5------------------| 5-- 5-- 5-- 8------10-- 8-- 7--|
G|---- 5 5---- 5-------- 5--------| 5-- 5-- 5-- 9------ 9 9--------|
D|-------------------- 5------ 5--|----------------------10--------|
A|--------------------------------| 5-------------- 0--------------|
E|-------------- 5----------------|--------------------------------|
http://classicalguitartablature.blogspot.com/
E| 5------------ 3------------ 2 2|------------ 2 3----------------|
B| 0---------- 0------------------|------ 0------------------------|
G| 0------ 0------------ 0--------|---- 0---------------- 0--------|
D|---- 0-------------- 0----------|-------------------- 0------ 0--|
A|---------------- 5--------------|-------------- 5----------------|
E| 3---------------------------- 3|------------------------------ 0|
http://classicalguitartablature.blogspot.com/
E|------ 5------ 3------------ 2 2|-------------- 3----------------|
B|---- 0--------------------------|------------ 0-------------- 0--|
G|---- 0------ 0---------- 0------|-------- 0-------------- 0------|
D|---- 0-------------- 0----------|---- 0-------------- 0----------|
A|-------------- 2----------------|-------------- 2----------------|
E|--------------------------------| 0------------------------------|
http://classicalguitartablature.blogspot.com/
E| 7---------- 5---------------- 7|---------- 5--------------------|
B| 5---------------------- 5 8-- 5|---------------------------- 5--|
G| 5------ 5------------ 5------ 5|------ 5-------------- 5--------|
D|---- 5-------------- 5----------|---- 5-------------- 5----------|
A| 0---------------------------- 0|--------------------------------|
E|---------------- 0--------------|-------------- 0----------------|
http://classicalguitartablature.blogspot.com/
E|------------ 7 5---- 7------10--|-------------------- 7 7--------|
B|-------- 5-- 5 5---- 5------ 8--|-------------------- 5 5--------|
G|------ 5------ 5---- 5------ 9--|-------- 9---------- 5 5---- 5--|
D|---- 5------------------ 5------|----10------10------------------|
A| 5------------------------------|--------------------------------|
E|-------------- 5----------------|10------------------------------|
http://classicalguitartablature.blogspot.com/
E| 5-- 3--------------------------|--------------------------------|
B| 0------------------------------|--------------------------------|
G| 0---------- 0-------- 0--------|------ 0-------------- 5------ 4|
D|-------- 0---------- 0------ 0--|---- 0------ 0------ 5 5------ 5|
A|---------------- 5--------------|-------------- 5----------------|
E| 3------------------------------| 3---------------------------- 3|
http://classicalguitartablature.blogspot.com/
E|-------- 5-- 3------------------|------ 5---- 3------------------|
B|---- 3---------------- 3--------|---- 3---------------- 0--------|
G|-------------------- 4------ 4--| 4-------------------- 0--------|
D|--------------------------------|-------------------- 0------ 0--|
A|---------------- 5--------------|---------------- 2--------------|
E|--------------------------------| 0------------------------------|
http://classicalguitartablature.blogspot.com/
E|-------- 7-- 5------------------|------ 7-- 5 7 7---- 5----------|
B|---- 5--------------------------|---- 5-------- 5------ 7--------|
G| 5---------------------- 5------|---- 5---------- 5---------- 7 4|
D| 5------------------ 5------ 5--|---- 5------------------------ 5|
A| 0------------------------------| 5------------------------------|
E|---------------- 0--------------|---------------- 5------------ 3|
http://classicalguitartablature.blogspot.com/
E|-------- 5-- 3------------------|------ 5---- 3------------------|
B|---- 3---------------- 3--------|---- 3---------------- 0--------|
G|-------------------- 4------ 4--| 4-------------------- 0--------|
D|--------------------------------|-------------------- 0------ 0--|
A|---------------- 5--------------|---------------- 2--------------|
E|--------------------------------| 0------------------------------|
http://classicalguitartablature.blogspot.com/
E|-------- 7-- 5------------------|--------------------------------|
B|---- 5--------------------------|-------- 7---- 8------10--------|
G| 5---------------------- 5------|---- 5---------- 5------ 7------|
D| 5------------------ 5------ 5--|---- 7------ 7------ 5------ 7--|
A| 0------------------------------| 5------ 5------ 7------ 9------|
E|---------------- 0--------------|--------------------------------|
http://classicalguitartablature.blogspot.com/
E| 5------------ 3------------ 2 2|------------ 2 3----------------|
B| 0---------- 0------------------|------ 0------------------------|
G| 0------ 0------------ 0--------|---- 0---------------- 0--------|
D|---- 0-------------- 0----------|-------------------- 0------ 0--|
A|---------------- 5--------------|-------------- 5----------------|
E| 3---------------------------- 3|------------------------------ 0|
http://classicalguitartablature.blogspot.com/
E|------ 5------ 3------------ 2 2|-------------- 3----------------|
B|---- 0--------------------------|------------ 0-------------- 0--|
G|---- 0------ 0---------- 0------|-------- 0-------------- 0------|
D|---- 0-------------- 0----------|---- 0-------------- 0----------|
A|-------------- 2----------------|-------------- 2----------------|
E|--------------------------------| 0------------------------------|
http://classicalguitartablature.blogspot.com/
E| 7---------- 5---------------- 7|---------- 5------------------ 7|
B| 5---------------------- 5 8-- 5|---------------------------- 5 5|
G| 5------ 5------------ 5------ 5|------ 5-------------- 5------ 5|
D|---- 5-------------- 5----------|---- 5-------------- 5----------|
A| 0---------------------------- 0|------------------------------ 5|
E|---------------- 0--------------|-------------- 0----------------|
http://classicalguitartablature.blogspot.com/
E|---- 5 7---- 5---------------- 7|---- 5-- 7--10------------------|
B|---- 5 5---- 5------------------| 5-- 5-- 5-- 8------10-- 8-- 7--|
G|---- 5 5---- 5-------- 5--------| 5-- 5-- 5-- 9------ 9 9--------|
D|-------------------- 5------ 5--|----------------------10--------|
A|--------------------------------| 5-------------- 0--------------|
E|-------------- 5----------------|--------------------------------|
http://classicalguitartablature.blogspot.com/
E| 5------------ 3------------ 2 2|------------ 2 3----------------|
B| 0---------- 0------------------|------ 0------------------------|
G| 0------ 0------------ 0--------|---- 0---------------- 0--------|
D|---- 0-------------- 0----------|-------------------- 0------ 0--|
A|---------------- 5--------------|-------------- 5----------------|
E| 3---------------------------- 3|------------------------------ 0|
http://classicalguitartablature.blogspot.com/
E|------ 5------ 3------------ 2 2|-------------- 3----------------|
B|---- 0--------------------------|------------ 0-------------- 0--|
G|---- 0------ 0---------- 0------|-------- 0-------------- 0------|
D|---- 0-------------- 0----------|---- 0-------------- 0----------|
A|-------------- 2----------------|-------------- 2----------------|
E|--------------------------------| 0------------------------------|
http://classicalguitartablature.blogspot.com/
E| 7---------- 5---------------- 7|---------- 5--------------------|
B| 5---------------------- 5 8-- 5|---------------------------- 5--|
G| 5------ 5------------ 5------ 5|------ 5-------------- 5--------|
D|---- 5-------------- 5----------|---- 5-------------- 5----------|
A| 0---------------------------- 0|--------------------------------|
E|---------------- 0--------------|-------------- 0----------------|
http://classicalguitartablature.blogspot.com/
E|------------ 7 5---- 7------10--|--------------------------------|
B|-------- 5-- 5 5---- 5------ 8--|--------------------------------|
G|------ 5------ 5---- 5------ 9--|------ 9---------------- 9------|
D|---- 5------------------ 5------|----10------10------10------10--|
A| 5------------------------------|---------------- 0--------------|
E|-------------- 5----------------|10------------------------------|
http://classicalguitartablature.blogspot.com/
E|10----10------------------------|10----10---------------------- 8|
B|10--1310----13----------------13|----1313----13--------------12 8|
G|10--1010----10--------10--------|10--1010----10--------10------ 9|
D|----10------10------10------10--|----12------12------12----------|
A|----------------12--------------|10------------------------------|
E|10------------------------------|--------------10----------------|
http://classicalguitartablature.blogspot.com/
E|---- 7-- 8-- 7------------------|------------------------------ 8|
B|---- 8 8---- 8-------- 8----10--|---- 8--------------------------|
G|---- 9 9---- 9------ 9-------- 9|---- 9------ 9---------- 9------|
D|--------------------------------|--------10----------10------10--|
A|--------------10----------------|----------------10--------------|
E| 8------------------------------| 8------------------------------|
http://classicalguitartablature.blogspot.com/
E|---- 7 8---- 7---------------- 8|---- 7 8---- 7----------------10|
B| 8-- 8 8-------------- 8----10--| 8-- 8 8-------------- 8----10 8|
G| 8-- 8 8------------ 8----------| 8-- 8 8------------ 8----------|
D|--------------------------------|--------------------------------|
A|--------------------------------|--------------------------------|
E| 8------------ 8----------------| 8------------ 8----------------|
http://classicalguitartablature.blogspot.com/
E|--------------------------------|--------------------------------|
B|--------------------------------|-------- 7---- 8------10--------|
G| 9------ 9-------------- 9------|---- 5---------- 5------ 7------|
D|----10------10------10------10--|---- 7------ 7------ 5------ 7--|
A|---------------- 0--------------| 5------ 5------ 7------ 9------|
E|10------------------------------|--------------------------------|
http://classicalguitartablature.blogspot.com/
E| 5------------ 3------------ 2 2|------------ 2 3----------------|
B| 0---------- 0------------------|------ 0------------------------|
G| 0------ 0------------ 0--------|---- 0---------------- 0--------|
D|---- 0-------------- 0----------|-------------------- 0------ 0--|
A|---------------- 5--------------|-------------- 5----------------|
E| 3---------------------------- 3|------------------------------ 0|
http://classicalguitartablature.blogspot.com/
E|------ 5------ 3------------ 2 2|-------------- 3----------------|
B|---- 0--------------------------|------------ 0-------------- 0--|
G|---- 0------ 0---------- 0------|-------- 0-------------- 0------|
D|---- 0-------------- 0----------|---- 0-------------- 0----------|
A|-------------- 2----------------|-------------- 2----------------|
E|--------------------------------| 0------------------------------|
http://classicalguitartablature.blogspot.com/
E| 7---------- 5---------------- 7|---------- 5------------------ 7|
B| 5---------------------- 5 8-- 5|---------------------------- 5 5|
G| 5------ 5------------ 5------ 5|------ 5-------------- 5------ 5|
D|---- 5-------------- 5----------|---- 5-------------- 5----------|
A| 0---------------------------- 0|------------------------------ 5|
E|---------------- 0--------------|-------------- 0----------------|
http://classicalguitartablature.blogspot.com/
E|---- 5 7---- 5---------------- 7|---- 5-- 7--10------------------|
B|---- 5 5---- 5------------------| 5-- 5-- 5-- 8------10-- 8-- 7--|
G|---- 5 5---- 5-------- 5--------| 5-- 5-- 5-- 9------ 9 9--------|
D|-------------------- 5------ 5--|----------------------10--------|
A|--------------------------------| 5-------------- 0--------------|
E|-------------- 5----------------|--------------------------------|
http://classicalguitartablature.blogspot.com/
E| 5------------ 3------------ 2 2|------------ 2 3----------------|
B| 0---------- 0------------------|------ 0------------------------|
G| 0------ 0------------ 0--------|---- 0---------------- 0--------|
D|---- 0-------------- 0----------|-------------------- 0------ 0--|
A|---------------- 5--------------|-------------- 5----------------|
E| 3---------------------------- 3|------------------------------ 0|
http://classicalguitartablature.blogspot.com/
E|------ 5------ 3------------ 2 2|-------------- 3----------------|
B|---- 0--------------------------|------------ 0-------------- 0--|
G|---- 0------ 0---------- 0------|-------- 0-------------- 0------|
D|---- 0-------------- 0----------|---- 0-------------- 0----------|
A|-------------- 2----------------|-------------- 2----------------|
E|--------------------------------| 0------------------------------|
http://classicalguitartablature.blogspot.com/
E| 7---------- 5---------------- 7|---------- 5--------------------|
B| 5---------------------- 5 8-- 5|---------------------------- 5--|
G| 5------ 5------------ 5------ 5|------ 5-------------- 5--------|
D|---- 5-------------- 5----------|---- 5-------------- 5----------|
A| 0---------------------------- 0|--------------------------------|
E|---------------- 0--------------|-------------- 0----------------|
http://classicalguitartablature.blogspot.com/
E|------------ 7 5---- 7------10--|--------------------10--10--10--|
B|-------- 5-- 5 5---- 5------ 8--|-------------------- 8-- 8--10--|
G|------ 5------ 5---- 5------ 9--|-------- 9---------- 9-- 9-- 9--|
D|---- 5------------------ 5------|----10------10------------------|
A| 5------------------------------|---------------- 0--------------|
E|-------------- 5----------------|10------------------------------|
http://classicalguitartablature.blogspot.com/
E|--------------------------------|--------------------------------|
B|------------------------------ 3|--------------------------------|
G|------ 9------ 9------ 7------ 4|--------------------------------|
D|---- 9------ 9 9------ 5------ 5|--------------------------------|
A|10------------------------------|--------------------------------|
E|--------------10------ 7--------| 3------------------------------|
http://classicalguitartablature.blogspot.com/

0 ความคิดเห็น:

แสดงความคิดเห็น