To celebrate the anniversary, I am giving you (finally...) : iPhone LickByNeck !!!!!!

Fire And Rain (BASIC)

James Taylor's tune fingerstyle chord melody guitar BASIC arrangement played in the key of C. Fire And Rain - James Taylor - BASIC ARRANGEMENT played in the key of C
http://classicalguitartablature.blogspot.com/
E|---- 8--------------------------|------------ 3---------- 1 0----|
B|-------- 8--------11------------| 8-- 8--10-- 1---------- 1 1 3 1|
G| 9---------- 9----------10------|10--10--10-- 0-------------- 0 0|
D|----------------12----------12--|--------------------------------|
A|----------------10--------------| 8---------- 3---- 3 3----------|
E| 8------------------------------|--------------------------------|
http://classicalguitartablature.blogspot.com/
E|--------------------------------|------ 1---- 5------ 1----------|
B| 5-------------- 3--------------|---------------------------- 1--|
G| 5------ 5------ 3------ 3------|---- 3---- 3------ 3------ 3----|
D|---- 5------ 5------ 3------ 3--|-- 3---- 3------ 3------ 3------|
A| 3------------ 3----------------| 1------------------------------|
E|--------------------------------|--------------------------------|
http://classicalguitartablature.blogspot.com/
http://classicalguitartablature.blogspot.com/
E|-- 0 0 0-- 0--------------------|--------------------------------|
B|-- 1 1 1-- 1-- 6---- 6---- 3 6 3|10-- 8------ 8-------- 8--------|
G|------ 0------------ 3----------|10------10-- 9------ 9---- 9----|
D|-------------- 3-------- 3------|------------10--------------10--|
A| 3------------------------------| 8---------------------------- 3|
E|---------------- 3--------------|------------ 8------------------|
http://classicalguitartablature.blogspot.com/
E|------ 0-- 3-- 3 5 3-- 3------ 1|-- 0----------------------------|
B|---- 1---------- 3 3-- 3-- 6 5 1|---- 1------ 1---- 1------------|
G|---------------- 4 4-- 4------ 0|------------ 0-- 0-------- 0----|
D|---- 2--------------------------|---------- 3-- 3-------- 3------|
A|------------------------------ 1|--------------------------------|
E|---------------- 3--------------|--------------------------------|
http://classicalguitartablature.blogspot.com/
E|-- 0 0 0-- 0--------------------|--------------------------------|
B|-- 1 1 1-- 1-- 6---- 6---- 3 6 3|10-- 8------ 8-------- 8--------|
G|------ 0------------ 3----------|10------10-- 9------ 9---- 9----|
D|-------------- 3-------- 3------|------------10--------------10--|
A| 3------------------------------| 8---------------------------- 3|
E|---------------- 3--------------|------------ 8------------------|
http://classicalguitartablature.blogspot.com/
E|------ 0-- 3-- 3 5 3-- 3------ 1|-- 0----------------------------|
B|---- 1---------- 3 3-- 3-- 6 5 1|---- 1------ 1---- 1------------|
G|---------------- 4 4-- 4------ 0|------------ 0-- 0-------- 0----|
D|---- 2--------------------------|---------- 3-- 3-------- 3------|
A|------------------------------ 1|--------------------------------|
E|---------------- 3--------------|--------------------------------|
http://classicalguitartablature.blogspot.com/
E|-------- 5-- 5-- 5------ 3 1 3--|-------------------------- 5-- 5|
B|------ 5---- 5-- 6-- 8-- 0 0----|-- 1-- 1-------- 1------------ 5|
G|---- 5-- 5-- 5-- 5-- 5-- 0------|---- 0---- 0------ 0---- 5---- 5|
D|-- 7---------------- 7----------|---- 2------ 2-------- 2--------|
A| 8------ 7------ 5------------ 3|-------------- 3----------------|
E|------------------------ 3------|--------------------------------|
http://classicalguitartablature.blogspot.com/
E|-- 5---------- 5---------- 3----| 0-------------------------- 5--|
B|-- 5------ 8 6 8-- 8---- 3-- 6--| 1-------- 1--------------------|
G|-- 5------ 5 5 5-- 5---- 4------| 0---- 0---- 0-------- 0-- 5----|
D|--------------------------------|---- 2-------------- 2----------|
A| 8------ 7------ 5--------------| 3-------------- 3--------------|
E|---------------------- 3--------|--------------------------------|
http://classicalguitartablature.blogspot.com/
E|------------12--13--12--12------| 3---------------------- 0 0----|
B|10--10--1315----10--10--1013--10| 1-------- 1------------------ 6|
G| 9-- 9--12------10--10--10------| 0---- 0---- 0------ 0-------- 5|
D|10--10--12----------------------|---- 2-------- 2-- 2---------- 5|
A| 8----------------------10------| 3-------------- 3--------------|
E|--------12------10--------------|------------------------------ 6|
http://classicalguitartablature.blogspot.com/
E|--------------------------------|-------------------------- 1 3 8|
B|-- 5-- 6---- 5 6---- 5-------- 1|---------- 1--------------------|
G|------ 5-- 5---- 5---------- 5--|------ 0---- 0------ 0-------- 9|
D|------ 5-------- 3------ 3------|---- 2-------- 2---- 2----------|
A|--------------------------------| 3-------------- 3--------------|
E|------ 5-------- 3--------------|--------------------------------|
http://classicalguitartablature.blogspot.com/
E|--------------------------------|------------------------------ 8|
B| 8------1110 8---- 8-------- 8--|---------------------- 8--1011 8|
G|------ 9------10---------- 9----|------ 9-- 9-------- 9-------- 9|
D|---- 8---------------- 8--------|---- 8-- 8---- 8-- 8------------|
A|--------------------------------|--------------------------------|
E| 8-------------- 8--------------| 8-------------- 8------------ 8|
http://classicalguitartablature.blogspot.com/
E|--10 8---------- 8--------------|--------------------------------|
B|-- 8 811--1011-- 8----10--1110--| 8------------------------------|
G|-- 9------------ 9--------------| 9---- 9-- 9---------- 9--------|
D|--------------------------------|-- 8---------- 8-- 8------ 8----|
A|--------------------------------|--------------------------------|
E|---------------- 8--------------| 8-------------- 8--------------|
http://classicalguitartablature.blogspot.com/
E|---- 8--------------------------|------------ 3---------- 1 0----|
B|-------- 8--------11------------| 8-- 8--10-- 1---------- 1 1 3 1|
G| 9---------- 9----------10------|10--10--10-- 0-------------- 0 0|
D|----------------12----------12--|--------------------------------|
A|----------------10--------------| 8---------- 3---- 3 3----------|
E| 8------------------------------|--------------------------------|
http://classicalguitartablature.blogspot.com/
E|--------------------------------|------ 1---- 5------ 1----------|
B| 5-------------- 3--------------|---------------------------- 1--|
G| 5------ 5------ 3------ 3------|---- 3---- 3------ 3------ 3----|
D|---- 5------ 5------ 3------ 3--|-- 3---- 3------ 3------ 3------|
A| 3------------ 3----------------| 1------------------------------|
E|--------------------------------|--------------------------------|
http://classicalguitartablature.blogspot.com/
E|--------------------------------|--------------------------------|
B| 3 5----------------------------|--------------------------------|
G| 5------------------------------|--------------------------------|
D|--------------------------------|--------------------------------|
A| 3------------------------------|--------------------------------|
E|--------------------------------|--------------------------------|
http://classicalguitartablature.blogspot.com/

0 ความคิดเห็น:

แสดงความคิดเห็น