To celebrate the anniversary, I am giving you (finally...) : iPhone LickByNeck !!!!!!

Lean On Me (BASIC)

Pop tune fingerstyle chord melody guitar BASIC arrangement played in the key of A. Lean On Me - BASIC ARRANGEMENT played in the key of A
http://classicalguitartablature.blogspot.com/
E|--------------------------------|--------------------------------|
B|--------------------------------|-------------------- 0-- 2-- 3--|
G|-------- 2------ 1--------------| 2-- 2------ 2-- 2-- 2-- 4-- 2--|
D|-- 0-------- 0-- 0--------------| 2---- 2---- 2-- 2-- 0-- 2-- 4--|
A|--------------------------------| 0---------- 0-- 0-- 2-- 4------|
E| 0-------------- 0--------------|--------------------------------|
http://classicalguitartablature.blogspot.com/
E|--------------------------------|--------------------------------|
B|---------------- 3-- 2-- 0------|-------------------- 0-- 2-- 2--|
G|---- 2---------- 2-- 4-- 2-- 2--|------ 2-------- 2-- 2-- 4-- 2--|
D|------ 4-------- 4-- 3-- 0-- 2--|------ 2-------- 2-- 0-- 2-- 2--|
A| 5---------- 5-- 5-- 4-- 2------| 0---------- 0-- 0-- 2-- 4------|
E|--------------------------------|--------------------------------|
http://classicalguitartablature.blogspot.com/
http://classicalguitartablature.blogspot.com/
E|--------------------------------|--------------------------------|
B|------ 2---- 0------------------|-------------------- 0-- 2-- 3--|
G|------ 2---- 1---------- 1------| 2-- 2------ 2-- 2-- 2-- 4-- 2--|
D|------ 2---- 2------ 2------ 2--| 2---- 2---- 2-- 2-- 0-- 2-- 4--|
A|--------------------------------| 0---------- 0-- 0-- 2-- 4------|
E| 0---------- 0------------------|--------------------------------|
http://classicalguitartablature.blogspot.com/
E|--------------------------------|--------------------------------|
B|---------------- 3-- 2-- 0------|-------------------- 0-- 2------|
G|---- 2---------- 2-- 4-- 2-- 2--|------ 2-------- 2-- 2-- 4-- 1--|
D|------ 4-------- 4-- 3-- 0-- 2--|------ 2-------- 2-- 0-- 2-- 2--|
A| 5---------- 5-- 5-- 4-- 2------| 0---------- 0-- 0-- 2-- 4------|
E|--------------------------------|--------------------------------|
http://classicalguitartablature.blogspot.com/
E|-------------------- 9----------|-------------- 9---------- 7----|
B|------------------------12--10--|----10----10----12----10-- 7----|
G|------ 1---- 2-------------- 9--|---- 9---- 9-- 9 9---- 9-- 6----|
D|------ 2---- 2--------------11--|----11----11----11----11--------|
A|------------ 0------------------| 0---------- 0---------------- 5|
E| 0------------------------------|-------------- 9----------------|
http://classicalguitartablature.blogspot.com/
E|-- 5-------- 5 5-- 4------------|---------------------- 9-- 9----|
B|-- 7-------- 7 7-- 7---- 7------|--------------10--12--10-- 7----|
G|---- 6------ 6 6-- 6-------- 9--|---- 9---- 9-- 9-- 9-- 9-- 7----|
D|----------------------------11--|----11----11--11--11------------|
A|------------ 5-- 5 5------------| 0---------- 0------------------|
E|--------------------------------|-------------- 9-------------- 0|
http://classicalguitartablature.blogspot.com/
E|---- 9---- 7--------------------|-------------- 9---------- 7----|
B|---- 7---- 7----------------1011|------10--10----12----10-- 7----|
G|---- 7---- 7---------- 7------ 9|------ 9-- 9-- 9 9---- 9-- 6----|
D|-------------------- 7----------|11----11--11----11----11--------|
A|--------------------------------| 0---------- 0---------------- 5|
E|------------ 0------------------|-------------- 9----------------|
http://classicalguitartablature.blogspot.com/
E|-- 5-------- 5 5-- 4------------|---------- 9--------------------|
B|-- 7-------- 7 7-- 7---- 7------|----------10--12--10--10-- 9----|
G|---- 6------ 6 6-- 6-------- 9--|---- 9---- 9-- 9-- 9-- 9---- 7--|
D|----------------------------11--|----11--------11--11--11---- 7--|
A|------------ 5-- 5 5------------| 0---------- 0------------------|
E|--------------------------------|-------------- 9-------------- 0|
http://classicalguitartablature.blogspot.com/
E|------ 7------------------------| 5------ 5---- 5-- 5------------|
B|------ 7--10---------- 5 7------| 5------ 5-- 5-- 7 5------ 5----|
G|------ 7-- 9--------------------| 6------ 6-- 6-- 6 6-------- 6--|
D|---- 7------11------11----------| 7-------------- 7-------- 7-- 7|
A|------------ 0------------------|--------------------------------|
E|--------------------------------|--------------------------------|
http://classicalguitartablature.blogspot.com/
E|---------- 5---------- 9------ 9|------ 9------------------------|
B|---- 5 7-- 5----------1012--1010|------10----12----10--10---- 9--|
G| 6-- 6------ 6---------- 9-- 9 9|------ 9---- 9------ 9-- 9-- 7--|
D|------------------------11--11--|------------11------1111---- 7--|
A|--------------------------------| 0------------------------------|
E|--------------------------------|------------------------------ 0|
http://classicalguitartablature.blogspot.com/
E|------ 7-- 5-------- 9----------|-------------- 9---------- 7----|
B|---------- 5------------12--10--|----10----10----12----10-- 7----|
G|---------- 6---------------- 9--|---- 9---- 9-- 9 9---- 9-- 6----|
D|-- 7------------------------11--|----11----11----11----11--------|
A|--------------------------------| 0---------- 0---------------- 5|
E|------------ 5------------------|-------------- 9----------------|
http://classicalguitartablature.blogspot.com/
E|-- 5-------- 5 5-- 4------------|---------------------- 9-- 9----|
B|-- 7-------- 7 7-- 7---- 7------|--------------10--12--10-- 7----|
G|---- 6------ 6 6-- 6-------- 9--|---- 9---- 9-- 9-- 9-- 9-- 7----|
D|----------------------------11--|----11----11--11--11------------|
A|------------ 5-- 5 5------------| 0---------- 0------------------|
E|--------------------------------|-------------- 9-------------- 0|
http://classicalguitartablature.blogspot.com/
E|---- 9---- 7--------------------|-------------- 9---------- 7----|
B|---- 7---- 7----------------1011|------10--10----12----10-- 7----|
G|---- 7---- 7---------- 7------ 9|------ 9-- 9-- 9 9---- 9-- 6----|
D|-------------------- 7----------|11----11--11----11----11--------|
A|--------------------------------| 0---------- 0---------------- 5|
E|------------ 0------------------|-------------- 9----------------|
http://classicalguitartablature.blogspot.com/
E|-- 5-------- 5 5-- 4------------|---------- 9--------------------|
B|-- 7-------- 7 7-- 7---- 7------|----------10--12--10--10-- 9----|
G|---- 6------ 6 6-- 6-------- 9--|---- 9---- 9-- 9-- 9-- 9---- 7--|
D|----------------------------11--|----11--------11--11--11---- 7--|
A|------------ 5-- 5 5------------| 0---------- 0------------------|
E|--------------------------------|-------------- 9-------------- 0|
http://classicalguitartablature.blogspot.com/
E|------ 7------------------------|---------- 9--------------------|
B|------ 7--10--------------------|----------10--12--10--10-- 9----|
G|------ 7-- 9---------------- 9--|---- 9---- 9-- 9-- 9-- 9---- 7--|
D|---- 7------11------11------11--|----11--------11--11--11---- 7--|
A|------------ 0------------------| 0---------- 0------------------|
E|--------------------------------|-------------- 9-------------- 0|
http://classicalguitartablature.blogspot.com/
E|------ 7------------------------|---------- 9--------------------|
B|------ 7--10--------------------|----------10--12--10--10-- 9----|
G|------ 7-- 9---------------- 9--|---- 9---- 9-- 9-- 9-- 9-- 7----|
D|---- 7------11------11------11--|----11--------11--11--11-- 9----|
A|------------ 0------------------| 0---------- 0------------------|
E|--------------------------------|-------------- 9-------------- 0|
http://classicalguitartablature.blogspot.com/
E|--------------------------------|---------------------- 7-- 5----|
B|--------------------------------|---------------------- 7-- 5----|
G|--------------------------------|---------------------- 7-- 6----|
D|--------------------------------|--------------------------------|
A|--------------------------------|--------------------------------|
E|--------------------------------|---------------------- 7---- 5--|
http://classicalguitartablature.blogspot.com/

0 ความคิดเห็น:

แสดงความคิดเห็น