To celebrate the anniversary, I am giving you (finally...) : iPhone LickByNeck !!!!!!

Believe It Or Not (BASIC)

The Greatest American Hero's Theme. Joe Scarbury's tune fingerstyle chord melody guitar BASIC arrangement played in the key of A. Believe It Or Not - Greatest American Hero- Joe Scarbury - BASIC ARRANGEMENT played in the key of A
http://classicalguitartablature.blogspot.com/
E|--------------------------------|--------------------------------|
B|--------------------------------|--------------------------------|
G| 1---------- 2---------- 2-- 1--|---- 2-- 2----------------------|
D| 2---------- 2------ 2------ 2--|---- 2-- 2----------------------|
A| 0---------- 0-------------- 0--|-------------- 0-------- 0------|
E|--------------------------------|-------------------- 0----------|
http://classicalguitartablature.blogspot.com/
E|--------------------------------|--------------------------------|
B|--------------------------------|--------------------------------|
G| 1---------- 2---------- 2-- 1--|---- 2-- 2-------------------- 2|
D| 4---------- 4------ 4------ 4--|---- 4-- 4----------------------|
A| 5---------- 5-------------- 5--|---------------- 5-- 0-- 5------|
E|--------------------------------|--------------------------------|
http://classicalguitartablature.blogspot.com/
http://classicalguitartablature.blogspot.com/
E|--------------------------------|--------------------------------|
B|------------ 0------------------|--------------------------------|
G|------------ 2-------- 1--------|--------------------------------|
D| 0---------- 0-------- 0--------|--------------------------------|
A|--------------------------------|--------------------------------|
E| 0---------- 0-------- 0--------|--------------------------------|
http://classicalguitartablature.blogspot.com/
E|--------------------------------|--------------------------------|
B| 2-- 2-- 2-- 3------ 2------ 0--|---- 0------ 2------------------|
G| 2-- 2-- 2-- 2------ 2-- 2-- 1--|---- 1------ 2-------- 2--------|
D| 2-- 2-- 2-- 4------ 4-- 4-- 2--|---- 2------ 2------ 2------ 2--|
A| 0---------- 5------------------|------------ 0------------------|
E|--------------------------------| 0------------------------------|
http://classicalguitartablature.blogspot.com/
E| 0-- 0-- 0-- 2---- 0-------- 0--|--------------------------------|
B| 2-- 2-- 2-- 3---- 3-- 3---- 0--|------------------------ 0------|
G| 2-- 2-- 2-- 2---- 2-------- 2--|------ 2-- 1-------- 1------ 1--|
D|---------------------- 4--------|-- 0-------- 0------------------|
A| 0------------ 5----------------|--------------------------------|
E|--------------------------------| 0------------------------------|
http://classicalguitartablature.blogspot.com/
E|---- 4-- 4-- 4-------- 4------ 5|---- 5-- 7-------------------- 2|
B| 7------ 7-- 7---- 7---------- 2|---- 2-- 5-- 7---------- 7 5----|
G| 4-- 4-- 4-- 4---- 4---------- 2|---- 2-- 6-- 6-------- 6-- 6----|
D| 6---------------- 6-------- 6--|------------ 7------ 7-- 7 7----|
A| 4------------------ 4----------|---------------- 5--------------|
E|--------------------------------| 2-- 2-- 0----------------------|
http://classicalguitartablature.blogspot.com/
E|---- 4 5---- 5------ 4-- 5-- 7--|------------------ 7------------|
B| 3-- 3 3---- 3------ 3-- 3-- 7--|--10--10--10--10-- 7------------|
G| 2-- 2 2---- 2------ 2-- 2-- 7--|---- 7 7-- 7-- 7-- 7------ 2----|
D|--------------------------------|---- 7 7-- 7-- 7---------- 4----|
A| 2---------- 2------------------|--------------------------------|
E|--------------------------------| 0---------------------------- 0|
http://classicalguitartablature.blogspot.com/
E|-------------------------- 0-- 9|-- 9-------- 9------12----------|
B|-------------------------- 0--10|--10--12----10------10------ 7--|
G|---- 2 2-- 2-- 2------ 4-- 4-- 9|-- 9-- 9---- 9------ 9------ 6--|
D|---- 4-- 4 4---------- 6--------|------11-------------------- 7--|
A|------------------------------ 0|--------------------------------|
E|--------------------------------|------------ 9------------------|
http://classicalguitartablature.blogspot.com/
E|------------------------ 5-- 7--| 9-- 9------ 9------------------|
B|---- 7-- 5-- 7---- 5------------|10--10--12--10-------------- 7--|
G|---- 6-- 6-- 6------ 7-- 6------| 9-- 9------ 9------ 9------ 6--|
D|---- 7-- 7-- 7------------------|--------11--------------11-- 7--|
A| 5-------------- 5--------------| 0------------------------------|
E|--------------------------------|---------------- 9--------------|
http://classicalguitartablature.blogspot.com/
E|-- 5------ 7------------------ 9|-- 9-------- 9------12------10--|
B|---- 7---- 7------------------10|--10--12----10------10------10--|
G|---- 6---- 7------------ 7-- 9 9|-- 9-- 9---- 9------ 9------11--|
D|------------------ 7------------|------11------------------------|
A| 5---------------------------- 0|--------------------------------|
E|-------------- 0----------------|------------ 9----------------10|
http://classicalguitartablature.blogspot.com/
E|------------ 5------------------| 2------------------ 5-- 5---- 3|
B|----14--12-- 7---------- 7------| 3---------- 5------ 5-- 5------|
G|--------11-- 6------ 6------ 6--| 2------ 2-- 4------------------|
D|----12--12----------------------|---- 4------ 6-------------- 4--|
A|---------------- 6--------------| 2---------- 4------------------|
E|--------------------------------|--------------------------------|
http://classicalguitartablature.blogspot.com/
E|-------------------------- 2----|--------------------------------|
B|-- 4-------- 3------------------| 7------------------10-- 9----10|
G|-------- 2-- 2-------- 2--------| 7-- 9-- 9-- 9------ 7-- 7---- 9|
D|------------ 4---- 4------------| 7-- 7-- 7-- 7------ 7-- 7----10|
A| 3------------------------------|--------------------------------|
E|---------------- 3--------------| 0------------------ 0----------|
http://classicalguitartablature.blogspot.com/
E|--------------------------------|--------------------------------|
B|--------------------------------|10--10--10--10---- 8--------10--|
G|-------- 9---------- 9----------| 9-- 9-- 9-- 9--------10---- 9--|
D|----10------10----------10------|10--10--10--10--------------10--|
A| 8------------------------------| 8------------------------------|
E|--------------------------------|--------------------------------|
http://classicalguitartablature.blogspot.com/
E|--------------------------------|-------------------- 8------ 5--|
B|--------------------------------|---------------------------- 6--|
G|---- 9------ 9---------- 9------|-------- 9------ 9---------- 7--|
D|--------10----------10------10--|----10------10------------------|
A|--------------------------------|--------------------------------|
E| 8------------------------------| 8------------------------------|
http://classicalguitartablature.blogspot.com/
E|--------------------------------|---------------- 5--------------|
B|---- 8 6-------------- 6--------|---------- 6---- 6-- 8---- 6----|
G|---- 7-- 7---------- 7---- 7----|---- 7---- 7-------- 7---- 7----|
D|--------------------------------|--------------------------------|
A|--------------------------------|--------------------------------|
E| 6------------------------------| 6------------------------------|
http://classicalguitartablature.blogspot.com/
E|------------------ 7------------|-------------------------- 0-- 9|
B|10--1010--10--10--10------------|-------------------------- 0--10|
G| 7---- 7-- 7-- 7-- 7------ 2----|---- 2 2-- 2-- 2------ 4-- 4-- 9|
D| 9-- 9 9-- 9-- 9---------- 4----|---- 4-- 4 4---------- 6--------|
A|--------------------------------|------------------------------ 0|
E| 0---------------------------- 0|--------------------------------|
http://classicalguitartablature.blogspot.com/
E|-- 9-------- 9------12----------|------------------------ 5-- 7--|
B|--10--12----10------10------ 7--|---- 7-- 5-- 7---- 5------------|
G|-- 9-- 9---- 9------ 9------ 6--|---- 6-- 6-- 6------ 7-- 6------|
D|------11-------------------- 7--|---- 7-- 7-- 7------------------|
A|--------------------------------| 5-------------- 5--------------|
E|------------ 9------------------|--------------------------------|
http://classicalguitartablature.blogspot.com/
E| 9-- 9------ 9------------------|-- 5------ 7------------------ 9|
B|10--10--12--10-------------- 7--|---- 7---- 7------------------10|
G| 9-- 9------ 9------ 9------ 6--|---- 6---- 7------------ 7-- 9 9|
D|--------11--------------11-- 7--|------------------ 7------------|
A| 0------------------------------| 5---------------------------- 0|
E|---------------- 9--------------|-------------- 0----------------|
http://classicalguitartablature.blogspot.com/
E|-- 9-------- 9------12------10--|------------ 5------------------|
B|--10--12----10------10------10--|----14--12-- 7---------- 7------|
G|-- 9-- 9---- 9------ 9------11--|--------11-- 6------ 6------ 6--|
D|------11------------------------|----12--12----------------------|
A|--------------------------------|---------------- 6--------------|
E|------------ 9----------------10|--------------------------------|
http://classicalguitartablature.blogspot.com/
E| 2------------------ 5-- 5---- 3|-------------------------- 2----|
B| 3---------- 5------ 5-- 5------|-- 4-------- 3------------------|
G| 2------ 2-- 4------------------|-------- 2-- 2-------- 2--------|
D|---- 4------ 6-------------- 4--|------------ 4---- 4------------|
A| 2---------- 4------------------| 3------------------------------|
E|--------------------------------|---------------- 3--------------|
http://classicalguitartablature.blogspot.com/
E|--------------------------------| 5------------------------------|
B| 7------------------10-- 9------| 5------------------------------|
G| 7-- 9-- 9-- 9------ 7-- 7------| 6---- 6------------ 6---- 6----|
D| 7-- 7-- 7-- 7------ 7-- 7------|---- 7------ 7---------- 7-- 6--|
A|--------------------------------| 0------------------------------|
E| 0------------------ 0----------|--------------------------------|
http://classicalguitartablature.blogspot.com/
E|--------------------------------|--------------------------------|
B|--------------------------------|--------------------------------|
G|-- 6---- 6----------------------| 1---------- 2---------- 2-- 1--|
D|-- 7---- 7----------------------| 4---------- 4------ 4------ 4--|
A|---------------- 0------ 0------| 5---------- 5-------------- 5--|
E|-------------------- 0----------|--------------------------------|
http://classicalguitartablature.blogspot.com/
E|--------------------------------|--------------------------------|
B|--------------------------------|------------ 0------------------|
G|---- 2-- 2-------------------- 2|------------ 2-------- 1--------|
D|---- 4-- 4----------------------| 0---------- 0-------- 0--------|
A|---------------- 5-- 0-- 5------|--------------------------------|
E|--------------------------------| 0---------- 0-------- 0--------|
http://classicalguitartablature.blogspot.com/
E|--------------------------------|--------------------------------|
B|--------------------------------|-- 0----------------------------|
G|--------------------------------|-- 2----------------------------|
D|--------------------------------| 2------------------------------|
A|--------------------------------| 0------------------------------|
E|--------------------------------|--------------------------------|
http://classicalguitartablature.blogspot.com/

0 ความคิดเห็น:

แสดงความคิดเห็น